Oops, an error
Loading. Please wait.

Awakening Bass Tab

version 3
version 3

Whole song

Interactive

9,617 views 1 this week
1 commentread comment
1 2 3 4 5
excellent!
x 12
add to favorites
launch autoscroll
font size
0
reset
guitar tuner
Autoscroll
slow
fast
+/-
esc
set tempo
stop
Help us to improve Ultimate-Guitar.com Take our survey!
×
Contributor
mi_koala 273
Switchfoot - Awakening bass tab **2nd update**
tabbed by: Miko Savady

*i changed the intro to what tim was actually playing after observing him and put how 
times they are in brackets so they're not too confusing.. enjoy!

Intro
G|--------------------------------------------------------------------------------|
D|--------------------------------------------------------------------------------|
A|--------------------------------------------------------------------------------|
E|--------------------------------------------------------------------------------|
    yeaahh..          yeaahh..          yeaahh..          yeaahh..

G|--------------------------------------------------------------------------------|
D|-------------------------------(6x)-----(6x)------------------------------------|
A|-----(6x)-----(6x)---(4x)--1212121212120000009h11h9--(5x)-----------(4x)--------|
E|-12121212121200000012121212------------------------1212121212\0-0012121212------|
YEAH!!

G|--------------------------------------------------------------------------------|
D|-----(6x)-----(6x)--------------------------------------------------------------|
A|-1212121212120000009h11h9-------------------------------------------------------|
E|--------------------------------------------------------------------------------|

Verse 1
G|--------------------------------------------------------------------------------|
D|-----9-6------------------------------------------------------------------------|
A|-7-9------------7-----9-6------------7-9----------------7-----------------------|
E|------------------7-9------------7-9-----9--------0-5-7---5--7--0---------------|
      Face down w/ the LA curbside endings and the ones and zeros

G|--------------------------------------------------------------------------------|
D|-----9-6------------------------------------------------------------------------|
A|-7-9------------7-----9-6------------7-9----------------7-----------------------|
E|------------------7-9------------7-9-----9--------0-5-7---5--7-7----------------|
      Downtown was the perfect place to hide

G|--------------------------------------------------------------------------------|
D|-----9-6------------------------------------------------------------------------|
A|-7-9------------7-----9-6------------7-9----------------7-----------------------|
E|------------------7-9------------7-9-----9--------0-5-7---5--7--0---------------|
      The first.. I saw last..was a headlight of a man made sky but

G|--------------------------------------------------------------------------------|
D|-----9-6--------------------------------------------------7---------------------|
A|-7-9------------7-----9-6------------7-9----------------7-----------------------|
E|------------------7-9------------7-9-----9--------0-5-7-------------------------|
      Man made never made our dreams collide, collide

Chorus 1
G|--------------------------------------------------------------------------------|
D|--------------------------------------------------------------------------------|
A|-7-7-7-7-7-7-----------------7--------------------------------------------------|
E|-------------0/7-7-7-7-7-7-9---9-9-9-9-9-9-9-0-5-5-5-5-5-5-5-5------------------|
   Here we.. falling sky and the rain,     we're awakening
   Here we.. desperate youth and pain,

G|--------------------------------------------------------------------------------|
D|--------------------------------------------------------------------------------|
A|------------------------6-6-6------------------12--12-12-12-12----0-------------|
E|-0-0-2-2-4-0-0-7--7-9-9-------7-9--9-9-9-11-12-----------------12---7-9-9-9-9---|
   Maybe its called ambition,   but you've..in your sleep about a dream,

G|--------------------------------------------------------------------------------|
D|------------------------------------------------(6x)-----(6x)-------------------|
A|----------------------(6x)-----(6x)---(4x)--1212121212120000009h11h9------------|
E|-9-9-9-9----------12121212121200000012121212------------------------------------|
   We're awakening. Ahh

Verse 2
G|--------------------------------------------------------------------------------|
D|-----9-6-------------9-6----------9-6------------9------------------------------|
A|-7-9-----7---9-----7-----9------7-------7---11-9---11-9-------------------------|
E|-----------------7------------9-------------------------------------------------|
      Last week.. for nothing.. deadlines.. deadbeat sky but,
      These..  singing to me.. nowhere, and all my life I


G|--------------------------------------------------------------------------------|
D|-----9-6-------------9-6----------9-6------------9------------------------------|
A|-7-9-----7---9-----7-----9------7-------7---11-9---11-9-------------------------|
E|-----------------7------------9-------------------------------------------------|
      This town.. look the same tonight..
      Don't know.. felt   so   alive,  alive..

Chorus 2
G|--------------------------------------------------------------------------------|
D|--------------------------------------------------------------------------------|
A|-7-7-7-7-7-7-----------------7--------------------------------------------------|
E|-------------0/7-7-7-7-7-7-9---9-9-9-9-9-9-9-0-5-5-5-5-5-5-5-5------------------|
   Here we.. falling sky and the rain,     we're awakening
   Here we.. desperate youth and pain,

G|--------------------------------------------------------------------------------|
D|--------------------------------------------------------------------------------|
A|------------------------6-6-6------------------12--12-12-12-12----0-------------|
E|-0-0-2-2-4-0-0-7--7-9-9-------7-9--9-9-9-11-12-----------------12---7-9-9-9-9---|
   Maybe its called ambition,   but you've..in your sleep about a dream,

Bridge
G|--------------------------------------------------------------------------------|
D|--------------------------------------------------------------------------------|
A|-----------------------5--------------------------------------------------------|
E|-9-9-9-9-0-----------------------5----------------------------------------------|
   We're Awakening

G|--------------------------------------------------------------------------------|
D|--------------------------------------------------------------------------------|
A|-4------------------------------------------------------------------------------|
E|---------------------------------------5----------------------------------------|
    I wana wake up kicking and screaming, I wana wake up kicking and screaming


G|--------------------------------------------------------------------------------|
D|--------------------------------------------------------------------------------|
A|--------------------------------------------------------------------------------|
E|-7------------------------------------------5-----------------------------------|
    I wana know that my heart's still beating, its beating, I'm bleeding

G|------------------------------------6\------------------------------------------|
D|---------------------------------/6---\-----------------------------------------|
A|-2h4-----------------------------------\----------------------------------------|
E|----------------------------------------5---------------------------------------|
      I wana wake up kicking and screaming,I wana live like I know what im leaving

G|--------------------------------------------------------------------------------|
D|--------------------------------------------------------------------------------|
A|--------------------------------------------------------------------------------|
E|-5h7------------------------------------------5-5-5-5-5-5-5-5-5-5-5-5-5---------|
      I wana know that my heart's still beating, its beating, its beating

G|--------------------------------------------------------------------------------|
D|--------------------------------------------------------------------------------|
A|--------------------------------------------------------------------------------|
E|-5-5-5-5-5-5-5-5-5-5-5-5--------------------------------------------------------|
        it's beating.      I'm bleeding!!!

Chorus 3
G|--------------------------------------------------------------------------------|
D|--------------------------------------------------------------------------------|
A|-7-7-7-7-7-7-----------------7--------------------------------------------------|
E|-------------0/7-7-7-7-7-7-9---9-9-9-9-9-9-9-0-5-5-5-5-5-5-5-5------------------|
   Here we.. falling sky and the rain,     we're awakening
   Here we.. desperate youth and pain,

G|--------------------------------------------------------------------------------|
D|--------------------------------------------------------------------------------|
A|------------------------6-6-6------------------12--12-12-12-12-12-12-14-16..----|
E|-0-0-2-2-4-0-0-7--7-9-9-------7-9--9-9-9-11-12----------------------------------|
   Maybe its called ambition,   but you've..in your sleep about a dream,

G|--------------------------------------------------------------------------------|
D|----------------------------------------14\-------------------------------------|
A|-16..-\12..------/16..------\12..----------\------------------------------------|
E|--------------------------------------------------------------------------------|
   We're awakening dream, we're awakening yeah!

Outro
G|--------------------------------------------------------------------------------|
D|-------------------------------(6x)-----(6x)------------------------------------|
A|-----(6x)-----(6x)---(4x)--1212121212120000009h11h9--(5x)-----------(4x)--------|
E|-12121212121200000012121212------------------------1212121212\0-0012121212------|


G|--------------------------------------------------------------------------------|
D|-----(6x)-----(6x)--------------------------------------------------------------|
A|-1212121212120000009h11h9-------------------------------------------------------|
E|-------------------------12-*ring-out-------------------------------------------|
Suggest correction new What's this?
You can suggest a correction to this tab. Community and Mods will review your correction and vote to approve or reject it.
comments
print report bad tab
1 comment total.
0 reply
BASSISTSRUL3 31 wrote on October 26 2007, 04:43 am

Great tab 5*s

guest
You may want to rate the tab now too:
select rating
Please do not post tabs as comments. Select "correction" instead!