Oops, an error
Loading. Please wait.

Awakening Tab

version 3
version 3

Whole song

Interactive

1,964 views 1 this week
1 commentread comment
1 2 3 4 5
please rate
add to favorites
launch autoscroll
font size
0
reset
how to read this tab
guitar tuner
Autoscroll
slow
fast
+/-
esc
set tempo
stop
Help us to improve Ultimate-Guitar.com Take our survey!
×
Contributor
Difficulty
BFry89 27
novice
----------------------------------------------------------------------------
                             Awakening - Switchfoot
----------------------------------------------------------------------------
Tabbed by:BFry89

Tuning:Standard

INTRO
e|--------------------------------------------------------------------------|
B|--------------------------------------------------------------------------|
G|--9----11----16----13-----11--13--11--9-----------------------------------|
D|--x----x-----x-----x------x---x---x---x-----------------------------------|
A|--7----9-----14----11-----9---11--9---7-----------------------------------|
E|------------------------------------------------------------------------- |
CHORUS
e|---0----0----0----0-------------------------------------------------------|
B|---0----0----0----0-------------------------------------------------------|
G|---9----4----6----2----------repeat---------------------------------------|
D|---9----4----6----2-------------------------------------------------------|
A|---7----2----4----0-------------------------------------------------------|
E|--------------------------------------------------------------------------|

For chorus you can play the power chords w/out the open B and e strings. The verses are 
bass i think, but you can palm mute the same power chords as the chorus.
comments
We did not receive enough feedback on this tab! Please rate:
print report bad tab
1 2 3 4 5
1 comment total.
0 reply
I-Z 506 wrote on January 11 2007, 10:31 pm

u should of done the whole tab

I want to post or [tab]
guest
You may want to rate the tab now too:
select rating
Please do not post tabs as comments. Select "correction" instead!