Oops, an error
Loading. Please wait.

Awakening Tab

version 4
version 4

Whole song

Interactive

719 views 3 this week
no commentswrite comment
1 2 3 4 5
please rate
add to favorites
launch autoscroll
font size
0
reset
how to read this tab
guitar tuner
Autoscroll
slow
fast
+/-
esc
set tempo
stop
Help us to improve Ultimate-Guitar.com Take our survey!
×
Author
Difficulty
Tuning
novice
C G C F A D
drop E    E B E A C# F#

to get to drop e tune your top string to E then tune the other strings to the 7th 
fret instead of the 5th

or just tune it to drop D and capo it on the second fret

please note i know this song is played in standard this is just so
you dont have to tune your guitar to standard

i suggest tuning to drop c and using a capo to alternate tuning 
like if you put it on the 2nd fret it makes it drop d and for this song 
put it on the fourth fret , this makes this gives you a wide rang of songs 
you can play without having to change tunings all the time


Intro: guitar 1 (*= palm mute)
f#----------------------------------------------------------------->
C#----------------------------------------------------------------->
A -----------------------222-----------------------------222------->
E -------777-------000222xxx444242-------777-------000222xxx444242->
B -555777xxx999797-000000000000000-555777xxx999797-000000000000000->
E -000000000000000-----------------000000000000000----------------->
  *************** ***************  *************** ***************

intro: guitar 1
/f#----------------------------------------------------------------->\
|C#----------------------------------------------------------------->|
|a -------222-------------222-------------222-------------222------->|
|e -000222---444242-000222---444242-000222---444242-000222---444242->|
|B ----------------------------------------------------------------->|
|E ----------------------------------------------------------------->|
|                                                                   |
|intro: guitar 2                                                    |
|F#----------------------------------------------------------------->|
|C#----------------------------------------------------------------->|
|A -777777777777777-----------------777777777777777----------------->|
|E -777777777777777-555555555555555-777777777777777-555555555555555->|
|A -555555555555555-555555555555555-555555555555555-555555555555555->|
\E -000000000000000-555555555555555-000000000000000-555555555555555->/

verse 1: guitar 1 (repeat)
F#------------------------------------------------------------------>
C#------------------------------------------------------------------>
A ------------------------------------------------------------------>
E -00000000------------------------00000000------------------------->
B ---------0000000022222222----------------0000000022222222--------->
E -------------------------55555555------------------------55555555->
  ****************************************************************
Face down with the LA curbside endings/with the ones and zeros. Downtown
was the perfect place to hide. The first star that I saw last night was a
headlight/of a man-made sky, but/man-made never made our dreams collide,
Collide.

Chorus: guitar 2 (repeat twice)
f#----------------------------------------------------------------->
C#----------------------------------------------------------------->
A -777777777777777-----------------444444444444444----------------->
E -777777777777777-777777777777777-444444444444444-555555555555555->
B -555555555555555-777777777777777-222222222222222-555555555555555->
E -000000000000000-777777777777777-----------------555555555555555->
Here we are now with the falling sky and the rain, We're awakening/Here we
are now with our desperate youth and the pain, We're awakening/Maybe it's
called ambition, you've been talking in your sleep/about a

fill: guitar 1
/f#--------------------------------->\
|C#--------------------------------->|
|a -------222-------------222------->|
|e -000222---444242-000222---444242->|
|B --------------------------------->|
|E --------------------------------->|
|                                                                  
|fill: guitar 2                                                    
|F#--------------------------------->|
|C#--------------------------------->|
|A -777777777777777----------------->|
|E -777777777777777-555555555555555->|
|A -555555555555555-555555555555555->|
\E -000000000000000-555555555555555->/

verse 1: guitar 1 (repeat)
F#------------------------------------------------------------------>
C#------------------------------------------------------------------>
A ------------------------------------------------------------------>
E -00000000------------------------00000000------------------------->
B ---------0000000022222222----------------0000000022222222--------->
E -------------------------55555555------------------------55555555->
  ****************************************************************
Last week found me living for nothing but deadlines, With my dead beat sky
but, this town doesn't look the same tonight These dreams started singing
to me out of nowhere/And in all my life I don't know if I've ever felt so
alive, Alive

---REPEAT CHORUS

fill: guitar 2
F#---------------------------------------------------------------->
C#---------------------------------------------------------------->
A -4444444444444447~-------------5~------------------------------->
E -4444444444444447~-------------5~----------5~------------------->
B -2222222222222225~-------------3~----------5~------------------->
E -------------------------------------------5~------------------->
Dream, we're awakening

Bridge: guitar 1 (repeat over and over)
F#-0-2-0--->
C#-------3->
A --------->
E --------->
B --------->
E --------->
I want to wake up kicking and screaming/I want to wake up kicking and
screaming/I want a heart that I know is beating, It's beating, I'm bleeding/
I want to wake up kicking and screaming/I want to live like I know what I'm
leaving/I want a heart that I know is beating, It's beating… it’s beating…

I'm bleeding

---REPEAT CHORUS


outro: guitar 1
/f#-----------------------------------------------------------------0~--->\
|C#-----------------------------------------------------------------3~--->|
|a -------222-------------222-------------222-------------222-------2~--->|
|e -000222---444242-000222---444242-000222---444242-000222---444242-0~--->|
|B -----------------------------------------------------------------0~--->|
|E -----------------------------------------------------------------0~--->|
|                                                                         |
|outro: guitar 2                                                          |
|F#-----------------------------------------------------------------0~--->|
|C#-----------------------------------------------------------------3~--->|
|A -777777777777777-----------------777777777777777-----------------2~--->|
|E -777777777777777-555555555555555-777777777777777-555555555555555-0~--->|
|A -555555555555555-555555555555555-555555555555555-555555555555555-0~--->|
\E -000000000000000-555555555555555-000000000000000-555555555555555-0~--->/
Suggest correction
Give kudos to tab author, rate the tab!
1 2 3 4 5
comments
print report bad tab
guest
You may want to rate the tab now too:
select rating
Please do not post tabs as comments. Select "correction" instead!