Oops, an error
Loading. Please wait.

Beautiful Letdown Tab

version 1
version 1

Album

Solo

Whole song

1,845 views 1 this week
no commentswrite comment
1 2 3 4 5
excellent!
x 1
add to favorites
launch autoscroll
font size
0
reset
how to read this tab
guitar tuner
Tab Pro tools
  • play this tab
  • loop segment
  • change instrument
  • show fretboard
  • metronome
Autoscroll
slow
fast
+/-
esc
set tempo
stop
Contributor
Difficulty
intermediate
This is the guitar sub. for the bass played in this song....this tab is 100% 
enjoy this awsome tab for a awsome song.

Words and Music by Jonathan Foreman
Song: The Beautiful Letdown
Tabbed by Eric (trudel_2k5@yahoo.com)
Tuning: Standard (EADGBe)

This tab is realy easy, just listin to the song very closely to figure the timing.
(Kybrd.) (Drums)
e:-----------------------------------------------------------|
B:-----------------------------------------------------------|
G:-----------------------------------------------------------|
G:-----------------------------------------------------------|
A:---------------5---7-----------5-5---7----------9--7-------|
E:----------------------0------7----------0--7/10------------|
                -----/------------------------------/  play--| x4
          Play only for intro

This is played where he sings "...myself alone, unknown and hurt..."

e:--------------------------------------------------------------------|
B:--------------------------------------------------------------------|
G:--------------------------------------------------------------------|
D:--------------------------------------------------------------------|  x2
A:--------------5-5-7----------9--7--------5-5---5/7----------9---7---|
E:-0----------7-------0---7/10------0-----7-7--------0---7/10---------|

Then you play this which is the Bridge

e:-----------------------------------------|
B:-----------------------------------------|
G:---------------6---------------------7/9-|
D:-6-------------------6-----/7------------|
A:-----------------------------------------|
E:-----------------------------------------|

e:----------------------------|
B:----------------------------|
G:---------------6------------|
D:-6-------------------6----4-|
A:----------------------------|
E:----------------------------|

e:---------------------------------------------------|
B:---------------------------------------------------|
G:-----------------7-7-7-7-6-------------------------|
D:-------------7/9--------------7--------------------|
A:-------------------------------------------------5-|
E:-0---0---------------------------0-5-7-----0-5/7---|

Then this is the easy part, now you just have to play

these 3 chords

    E   Dsus2/E   F#m7add11/E
    -     -           -
    -     3           -
    1     2           2
    2     -           4
    2     -           4
    -     x           -

Thats it! This is a realy easy song compared to there other songs...and plus its an 
song too...enjoy
Any ?'s you can contact me at trudel_2k5@yahoo.com/hotmail.com
God Bless!
comments
We did not receive enough feedback on this tab! Please rate:
print report bad tab
1 2 3 4 5
I want to post or [tab]
guest
You may want to rate the tab now too:
select rating
Please do not post tabs as comments. Select "correction" instead!