Oops, an error
Loading. Please wait.

Beautiful Letdown Bass

version 2
version 2

Whole song

575 views 3 this week
1 commentread comment
1 2 3 4 5
2 more votes to show rating
add to favorites
launch autoscroll
font size
0
reset
guitar tuner
×
Best way to learn
"Beautiful Letdown"
Autoscroll
slow
fast
+/-
esc
set tempo
stop
Author
Difficulty
-------------------------------------------------------------------------------
                             Beautiful Letdown - Switchfoot
-------------------------------------------------------------------------------
Tabbed by: Sovaso
Tuning: Standard
Album: The Beautiful Letdown

Verse:
G|------------------------------------------------|
D|---------------0-0----2-----------------4~-2~---|
A|----------0-2-------------------0-2-------------| 
E|-----0------------------0-----------------------|

pre-chorus:
G|---------------------------------------|
D|---------------1/2---------------------|
A|-----4-----------------4---------------|
E|---4---4-3-----------4---4~~--2--------|

Chorus:
G|----------------------------------------------|
D|---------------------------------2------------|
A|----------2-5-5-5-5-4---0---------------0---5-|
E|-----0-0-------------------0-0-----0-0--------|

order: 
verse       x8 
pre-chorus  x1
chorus      x2
verse       x4
chorus      x6
verse       x4 



===============================================================================
| /  slide up
| \  slide down
| h  hammer-on
| p  pull-off
| ~  vibrato
| +  harmonic
| x  Mute note
===============================================================================
Suggest correction
Give kudos to tab author, rate the tab!
1 2 3 4 5
comments
print report bad tab
1 comment total.
-1 reply
TSorbera 12 Jul 06, 2013 05:49 PM

Verse:
G|--------------------------------------------|
D|---------------0------2-------------4~-2~---|
A|------------2-------------------0-2---------|
E|-----0----0-------------0-------------------|

guest
You may want to rate the tab now too:
select rating
Wanna post a correction for this tab? Suggest correction