Oops, an error
Loading. Please wait.

Bomb Bass Tab

version 1
version 1

Whole song

2,186 views 6 this week
3 commentsread comments
1 2 3 4 5
accurate
x 4
add to favorites
launch autoscroll
font size
0
reset
guitar tuner
Autoscroll
slow
fast
+/-
esc
set tempo
stop
Help us to improve Ultimate-Guitar.com Take our survey!
×
"Bomb"
by Switchfoot
(c) 1997 Meadowgreen Music/Sugar Pete Songs/ASCAP
Toonman (bass4jesus@aol.com)


INTRO:
G-----5---------------3-7---8p7-5-------5-----------5-2---7---8---|
D-5h7---7-1---3-0-1-3---------------5h7---7-1---0h2-----2---------|

G-8-----\5-------------3---1---0-----------8-----\5---------------|
D-------------------------------------------------------0---------|

VERSE 1:                         (4x)
G-----5-----------------------------|
D-5h7---7-1-1-1-3-1-0-0-0-0---------|
A---------------------------3-3-----|
E-------------------------------0-0-|

CHORUS:                                            (2x)
G-----------------|-----5-----------------------------|-----5-----|
D-2---------------|-5h7---7-1-1-1-3-1-0-0-0-0---------|-5h7---7---|
A-----------------|---------------------------3-3-----|-----------|
E-----------------|-------------------------------0-0-|-----------|

                               (4x)
A-----5---7------\3-----3---------|
E-3-------------------------------|

VERSE 2:
G-----5---------------------------------------------------------------|
D-5h7---7-1-1-1-3-1-0-0-0-0-----------7-7-7-7-6-6-6-6-5-5-5-5-3-3-3-3-|
A---------------------------3-3---------------------------------------|
E-------------------------------0-0-----------------------------------|

  (Slap Bass Time!)                                               (2x)
G---5---------------7---5---0-2-0---5---------------7---5-2-1-0-1----|
D-------7---0-1-0-0-------2-------------7---0-1-0-0------------------|
A---------3-------------------------------3--------------------------|

CHORUS 2:                                          (4x)
G-----------------|-----5-----------------------------|-----5-----3---4---|
D-2---------------|-5h7---7-1-1-1-3-1-0-0-0-0---------|-5h7---------------|
A-----------------|---------------------------3-3-----|-------------------|
E-----------------|-------------------------------0-0-|-------------------|

(Repeat Verse 1)
(Repeat 2nd Half of Intro)
(Repeat Verse 2, getting progressively slower; This time play only 2x)
(Finish off with a nice long C)
Suggest correction
comments
print report bad tab
3 comments total.
+2 reply
Uncommonresults 480 wrote on March 2 2005, 12:00 am

Intro is a little off but otherwise this is good

+3 reply
Uncommonresults 480 wrote on March 2 2005, 12:00 am

on the intro i play it like
G-----5----------------3/7/8/7-5------5-----------5-2/7/8/5-
D-5-7---7-----3-0-1-3------------5-7---7-----0h2-----------
A----------6b------------------------------6b---------------
E------------------------------------------------------------

0 reply
Nic-0 52 wrote on February 3 2010, 10:18 pm

i play the intro like this

G----5-----------5h7-8-7-5---5-------8-7
D-5h7-7-------5-8---------5h7-7-------(8)
A------6-8-5-6-----------------6-7------
E---------------------------------8-5---

guest
You may want to rate the tab now too:
select rating
Wanna post a correction for this tab? Suggest correction