Oops, an error
Loading. Please wait.

Bomb Tab

1,533 views 1 this week
no commentswrite comment
1 2 3 4 5
1 last vote to show rating
add to favorites
launch autoscroll
font size
0
reset
how to read this tab
guitar tuner
Autoscroll
slow
fast
+/-
esc
set tempo
stop
Help us to improve Ultimate-Guitar.com Take our survey!
×
Author
Difficulty
intermediate
   Artist:Switchfoot
   Album:The Legend of Chin
   Tabbed by:Joshua Leon

      So now after the 5th update, I'm 100% sure this is correct.

     Intro(base part on guitar)
   e|--------------------------------------------|
   B|--------------------------------------------|
   G|--------------------------------------------|
   D|-------------------0-1p0----------------0-1-|
   A|------------------1-----3~0-3-0-----3-0-----|
   D|-/7-10-7/1-3-1-0-3-------------1~1\2---2----|

     Guitar part
   e|------------------------------------|
   B|-----5~~~-----4~~~-----5------------|
   G|---54~45~----5~5~~---54~45---5----4-|
   D|--5~~~~~5---6~~~6~--5~~~~-----------|
   A|-3~~~~~~---6~~~~~6-3~~~~~---6~---5~~|
   E|----------4~~~~~~~~--------4~~4\3~~~|

     Verse 1(4x)
   e|-----------------------------------|-------------|
   B|-----------------------------------|-------------|
   G|-----------------------------------|-------------|
   D|-(5)++5-(5)++++5-(5)++++5-(3)++++3-|-55555-33333-|
   A|-(7)++7-(6)++++6-(5)++++5-(3)++++3-|-55555-33333-|
   E|-(5)++5-(4)++++4-(3)++++3-(1)++++1-|-33333-11111-|
    
     Chorus
   e|-0~--------------------------------------------|
   B|-0~--------------------------------------------|
   G|-x~--------------------------------------------|
   D|-2~777\666666\555\333333-777\666666\555\333333-|
   A|-2~xxx\xxxxxx\xxx\xxxxxx-xxx\xxxxxx\xxx\xxxxxx-|
   E|-0-555\444444\333\111111-555\444444\333\111111-|

     Post-chorus 1(2x)
   e|------------|
   B|----------5~|
   G|-7-8--9\5-4~|
   D|-8-9-10\5-5~|
   A|-5-6--7\3-3~|
   E|------------|
     Verse
     2nd part(4x)                           Last Part
   e|--------------------------------------|----------------|
   B|--------------------------------------|----------------|
   G|-xx--9--9~xxxx-8-9-xxxx-7-7-xx-7-xx-8-|-77777-77-5-5-5-|
   D|-xx--7--7~xxxx-6-6-xxxx-5-5-xx-5-xx-6-|-55555-55-3-3-3-|
   A|-xx--7--7~xxxx-6-6-xxxx-5-5-xx-5-xx-6-|-55555-55-3-3-3-|
   E|--------------------------------------|----------------|

     Chorus
     Post-Chorus
     Gtr. 1  Gtr.2                       (2x) Then...
   E|--------|-------------------------------|---------|
   B|--------|-------------------------------|---------|
   G|-7-8-9b/|-9-9xxxx-8-8-xxxx-7-7-xx-7-8-9\|-9999999-|
   D|-x-x-x-/|-7-7xxxx-6-6-xxxx-5-5-xx-x-x-x\|-7777777-|
   A|-5-6-7b/|-7-7xxxx-6-6-xxxx-5-5-xx-5-6-7\|-7777777-|
   E|--------|-------------------------------|---------|

   End(do palm mute until the part when he plays)
     
   E|---------------------------------------------------------|
   B|---------------------------------------------------------|
   G|-xxxx--9-9-xxxx-8-8-xx-777-77777-55555-55555-44444-7-8---|
   D|-xxxx--7-7-xxxx-6-6-xx-555-55555-77777-66666-55555-x-x-5~|
   A|-xxxx--7-7-xxxx-6-6-xx-555-33333-77777-66666-55555-5-6---|
   E|---------------------------------55555-44444-33333-------|
     Gtr 2
   E|-----------------------------------------------|
   B|-----5~~~------4~~~-----5~~~---------5~5~5~5~5~|
   G|---54~45~-----5~5~~---54~45~---5---4-4~4~4~4~4~|
   D|--5~~~~~5----6~~~6~--5~~~~~5---------5~5~5~5~5~|
   A|-3~~~~~~~---6~~~~~6-3~~~~~~~--6~--5~-3~3~3~3~3~|
   E|-----------4~~~~~~~----------4~~\3~~-----------|

     God bless.
            -Josh
Suggest correction
Give kudos to tab author, rate the tab!
1 2 3 4 5
comments
print report bad tab
guest
You may want to rate the tab now too:
select rating
Wanna post a correction for this tab? Suggest correction