Oops, an error
Loading. Please wait.

Bomb Bass Tab

version 2
version 2

Whole song

823 views 3 this week
no commentswrite comment
1 2 3 4 5
excellent!
x 2
add to favorites
launch autoscroll
font size
0
reset
guitar tuner
Tab Pro tools
  • play this tab
  • loop segment
  • change instrument
  • show fretboard
  • metronome
Autoscroll
slow
fast
+/-
esc
set tempo
stop
Contributor
Difficulty
-----------------------------------------------------------------------------
                                    BOMB                       SWITCHFOOT
-----------------------------------------------------------------------------

Tabbed by:hurricaneherman
Tuning:standard(G-D-A-E)

b = bend
r = release

This is the bass tab for Bomb, a pretty awesome song for their first album I
must say. I did not put the bridge in because I couldn't get it to sound right,
but I might complete this tab later.
Now without any further ado, here is the tab.

 ~INTRO~

G|----5---------------|---3-3/7----8p7-5---|
D|5/7---7-1------3-0-1|-3------------------|
A|--------------------|--------------------|
E|--------------------|--------------------|

G|----5---------------|--------------------|
D|5/7---7-1-----------|----5-2---7----8----|
A|--------------------|0/2-----2-----------|
E|--------------------|--------------------|

G|b7r7-5--------------|--5------/3----1----|
D|--------------------|--------------------|
A|--------------------|--------------------|
E|--------------------|--------------------|

G|0-------------------|b7r7-5---------0----|
D|--------------------|--------------------|
A|--------------------|--------------------|
E|--------------------|--------------------|

 ~VERSE~

You might want to listen to the song to get the timing right.

G|----5-------------|----------------|  |----------------|
D|5/7---7-1-1-1-3-1-|0-0-0-0---------|  |2---------------|
A|------------------|--------3-3-0-0-|X4|----------------|
E|------------------|----------------|  |----------------|

 ~CHORUS~

The first part is the same as the verse.

G|----5-------------|----------------|
D|5/7---7-1-1-1-3-1-|0-0-0-0---------|
A|------------------|--------3-3-0-0-|X2
E|------------------|----------------|

G|----------3---4-|5--------------|
D|----------------|---------------|
A|----------------|----/3----3----|X2
E|----------------|---------------|

 ~VERSE~

G|----5-------------|----------------|
D|5/7---7-1-1-1-3-1-|0-0-0-0---------|
A|------------------|--------3-3-0-0-|
E|------------------|----------------|

G|----------------|----------------|
D|7-7-7-7-6-6-6-6-|5-5-5-5---------|
A|----------------|--------3-3-3-3-|
E|----------------|----------------|

 ~BRIDGE~

I'll get this tabbed.

 ~CHORUS~

G|----------------|
D|2---------------|
A|----------------|
E|----------------|

G|----5-------------|----------------|
D|5/7---7-1-1-1-3-1-|0-0-0-0---------|
A|------------------|--------3-3-0-0-|X4
E|------------------|----------------|

G|----5-----3---4---|
D|5/7---7-1---------|
A|------------------|
E|------------------|

 ~OUTRO~

G|----5-------------|----------------|
D|5/7---7-1-1-1-3-1-|0-0-0-0---------|
A|------------------|--------3-3-0-0-|X4
E|------------------|----------------|

G|b7r7-5------------|5----13----1----|
D|------------------|----------------|
A|------------------|----------------|
E|------------------|----------------|

G|0---------------|b7r7-5-------0----|
D|----------------|------------------|
A|----------------|------------------|
E|----------------|------------------|

G|----5-------------|----------------|
D|5/7---7-1-1-1-3-1-|0-0-0-0---------|
A|------------------|--------3-3-0-0-|X2
E|------------------|----------------|

G|----------------|
D|----------------|
A|3---------------|
E|----------------|

NOTE: All the bends in this song are half bends.

I hope you enjoy this tab, as much as I enjoyed tabbing it for you.
=============================================================================
END
comments
We did not receive enough feedback on this tab! Please rate:
print report bad tab
1 2 3 4 5
I want to post or [tab]
guest
You may want to rate the tab now too:
select rating
Please do not post tabs as comments. Select "correction" instead!