Oops, an error
Loading. Please wait.

Bullet Soul Bass Tab

version 1
version 1

Whole song

Interactive

1,300 views 1 this week
no commentswrite comment
1 2 3 4 5
2 more votes to show rating
add to favorites
launch autoscroll
font size
0
reset
guitar tuner
Autoscroll
slow
fast
+/-
esc
set tempo
stop
Help us to improve Ultimate-Guitar.com Take our survey!
×
Difficulty
Tuning
intermediate
D A D G B E
Artist:The best band in the world
Album:Their best album
Song:One of their coolest

  ~BULLET SOUL~

This song is in drop D tuning (D-A-D-G) -just like a lot of their songs-
                   

  ~INTRO

  The bass comes in half way through the intro with this riff.

G|----------------|-----------------|
D|----------------|-----------------|
A|77777------55556|7777107-----55556|
D|-----765555-----|-------75555-----|

  ~VERSE~

  This is the only note that is played for the verse.

G|----------------|-----------------|
D|----------------|-----------------|
A|7---------------|-----------------|
D|----------------|-----------------|
  
  Ooh I wanna sing one for all the dreamers...
 
  ~CHORUS~
G|----------------|    |-----------|
D|----------------|    |-----------|
A|77777------55556| X3 |99999777---|
D|-----765555-----|    |-----------|

  We rise and fall together...

G|------------------|------------------|
D|------------------|------------------|
A|7777/107-----55556|7777/107-----55557|
D|--------75555-----|--------75555-----|

  Are you ready to go...

  ~VERSE~
G|----------------|
D|----------------|
A|7---------------|
D|----------------|

  Ooh I wanna turn up...

G|-----------------|  |------------------|  |--------|
D|-----------------|  |----9-------------|  |--------|
A|7----7910---10-\-|X3|7-----7910---10-\-|X3|7-------|
D|-----------------|  |------------------|  |--------|

  ...the radiation...one true innovation...is the only art...

  ~REPEAT CHORUS~

  The second chorus is a little longer, so this is a continues of the chorus

G|------------------|
D|------------------|
A|7777/107-----55557|
D|--------75555-----|

  ...Are you ready to go...

  ~BRIDGE~

G|----------------|  |-------------------|
D|99999------77778|  |9---11---12---14---|
A|-----987777-----|X3|-------------------|
D|----------------|  |-------------------|

G|----------------|----------------|----------------|
D|----------------|----------------|----------------|
A|----------------|----------------|----------------|
D|-----765--------|-----765--------|-----765---0----|

...scar              ooh...from the start...yeah yeah...

 ~REPEAT SECOND CHORUS~

  I know for a fact that this is NOT the fingering that Tim uses, but they
are still the same notes. I've had this tabbed for a while, but I wanted to
keep it to myself before I released it to the public.

  I hope you enjoy this tab, because I know I did, BEFORE you.  
Suggest correction
Give kudos to tab author, rate the tab!
1 2 3 4 5
comments
print report bad tab
guest
You may want to rate the tab now too:
select rating
Wanna post a correction for this tab? Suggest correction