Oops, an error
Loading. Please wait.

Chem 6A Bass Tab

version 1
version 1

Whole song

Interactive

1,173 views 3 this week
1 commentread comment
1 2 3 4 5
worth learning
x 5
add to favorites
launch autoscroll
font size
0
reset
guitar tuner
Tab Pro tools
  • play this tab
  • loop segment
  • change instrument
  • show fretboard
  • metronome
×
Best way to learn
"Chem 6a"
Autoscroll
slow
fast
+/-
esc
set tempo
stop
Title:Chem6A
Artist:Switchfoot
Album:Legend of Chin
(C)1997 Meadowgreen music/Sugar Pete Songs/ASCAP
Tabbed by Racer

Intro/Verse
G------------------4p2h4-----------------|
D------------------------------------0h2-|
A--------------2-2-------3-3-0h3-5-5-----|
E-3s10-3-3-0h3---------------------------|

G-------------4p2h4------------------|
D------------------------------------|
A---------2-2-------3-3-0h3-5--------|
E-3-3-0h3------------------------10\-|

Chorus
G-------------------------------------------------------------|
D-------------------------------------------------------------|
A-----------------------------------------3-3-3-3-3-----------|
E-0-0-0-0-0-3-3-3-3-3-0-0-0-0-0-5-5-5-5-5-----------3-3-3-3-3-|

G---------------------------------------------------------------|
D---------------------------------------------------------------|
A-----3-----------------------------------------------3-3-3-3-3-|
E-------3-----0-0-0-0-0-3-3-3-3-3-0-0-0-0-0-5-5-5-5-5-----------|

G--------------------------|
D--------------------------|
A-----------1-1----1-1---1-|
E-3-3-3-3-3----------------|

That's it. Any Switchfoot bass questions?? Racerx9663@aol.com
comments
print report bad tab
1 comment total.
0 reply
Joel_B wrote on August 2 2013, 10:55 pm

Here it is people, 100% accurate. Switchfoot is my favorite band!

First is everything but chorus. This is the intro, verses, solo, outro, etc.

Intro/Verse/Everything else
G-----------4-2-4--------------|
D------------------------------|
A--------2-2------3-3---5-5----|
E--3-3---------------------10\-|
Note that the 10 is optional but sounds better. I use it some of the times but not every time...

Now for the chorus
G--------------------------------------------------------|
D--------------------------------------------------------|
A---------------------------------3-3-3-3---------x--3---|
E-0-0-0-0-3-3-3-3-0-0-0-0-5-5-5-5---------0-0-0-0-x----3-|

G---------------------------------------------------------------|
D---------------------------------------------------------------|
A---------------------------------3-3-3-3-----------3-3--3-3--3-|
E-0-0-0-0-3-3-3-3-0-0-0-0-5-5-5-5---------0-0-0-0---------------|

There it is people, enjoy!

I want to post or [tab]
guest
You may want to rate the tab now too:
select rating
Please do not post tabs as comments. Select "correction" instead!