Oops, an error
Loading. Please wait.

Chem 6A Tab

version 2
version 2

Whole song

Interactive

9,411 views 15 this week
2 commentsread comments
1 2 3 4 5
excellent!
x 16
add to favorites
launch autoscroll
font size
0
reset
how to read this tab
guitar tuner
Autoscroll
slow
fast
+/-
esc
set tempo
stop
Help us to improve Ultimate-Guitar.com Take our survey!
×
Author
Difficulty
novice
=====================                         =========================
Chem 6a---Switchfoot--------------------------Transfered by Asa Gaston
=====================                         =========================

 Intro
  G       B5        C7      D5
|-----------------|----------------------|
|-----------------|----------------------|
|-----4-0-----4-0-|-----3-0-----2h4p2p0--|
|-----------------|---------0-0-0--------|
|---------2-2-----|-3-3------------------|
|-3-3-------------|----------------------|

  G           B5        C7      D5
|---------------------|---------------||
|---------------------|---------------||
|-----4-x---x-----4-0-|-----3-0-------||
|-----x-x-x-x---------|---------7-----||
|-------x-x-x-2-2-----|-3-3-----5--5\-||
|-3-3-----------------|---------------||


   Verse
    G         B5        C7      D5
||--------------------|----------------------|
||o-------------------|----------------------|
||------4-x-x-----4-0-|-----3-0-----2h4p2p0--|
||------x-x-x---------|---------0-0-0--------|
||o-------x-x-2-2-----|-3-3------------------|
||--3-3---------------|----------------------|


  1st ending
  G           B5        C7      D5
|---------------------|----------------||
|---------------------|---------------o||
|-----4-x---x-----4-0-|-----3-0--------||
|-----x-x-x-x---------|---------7------||
|-------x-x-x-2-2-----|-3-3-----5--5\-o||
|-3-3-----------------|----------------||


  2nd ending
  G           B5                Bb
|-----------------------------|----------------------|
|-----------------------------|----------------------|
|-----4-4-4-4-4-4-4-4-4-4-4-4-|-3-3-3-3-3-3-3-3------|
|-----------------------------|-----------------7----|
|-------------2-2-2-2-2-2-2-2-|-1-1-1-1-1-1-1-1-5----|
|-3-3-3-3-3-3-----------------|----------------------|


   Chorus
    Em7       G           Em7       A7sus4
||----------------------|---------------------|
||o---3-3-3-3-3-3-3-3-3-|---3-3-3-3-3-3-3-3-3-|
||--0-0-0-0-0-0-0-0-0-0-|-0-0-0-0-0-0-0-0-0-0-|
||--2-2-2-2-2-0-0-0-0-0-|-2-2-2-2-2-2-2-2-2-2-|
||o-2-2-2-2-2-2-2-2-2-2-|-2-2-2-2-2-0-0---0-0-|
||--0---0-0---3-3---3---|-0---0-0-------------|


                         1st           2nd
  Cadd9     Em7             C9 G        C7
|-----------------------|------------||-------------|
|-3-3-3-3-3-3-3-3-3-3-3-|---3--3----o||-------------|
|-0-0-0-0-0-0-0-0-0-0-0-|---0--0-----||-3-3--3-3----|
|-2-2-2-2-0-2-2-2-2-2-2-|---2--0-----||-2-2--2-2----|
|-3-3-3-3-0-2-2-2-2-2-2-|---3--2----o||-3-3--3-3----|
|-----------0---0-0-0---|------3-----||-------------|


 Guitar Solo
|-----------|---------------|------------|------------------|
|-----------|---------------|------------|------------------|
|-/7--------|----------7b9--|-4------0-2-|-2h3--0--0h2--0---|
|-----------|---------------|------------|------------------|
|-----------|---------------|------------|------------------|
|-----------|---------------|------------|------------------|


|-----------|--------------------|---------------|---------------------|
|-----------|--------------------|---------------|---------------------|
|-/7--------|-----7-x-7-x-7-7-7/-|-/12-----12-14-|-14/15-12--12/14-12--|
|-----------|--------------------|---------------|---------------------|
|-----------|-----5-x-5-x-5-5-5/-|-/10-----10-12-|-12/13-10--10/12-10--|
|-----------|--------------------|---------------|---------------------|


|--------------------------|-------------------------------|
|-8------------------------|-------------------------------|
|-7-7-7-5-5-5h7--7-7-7-5-5-|-5h7--7-7-7-5-5-5h7--7-7-7-5-5-|
|-5-5-5-5-5-5----5-5-5-5-5-|-5----5-5-5-5-5-5----5-5-5-5-5-|
|--------------------------|-------------------------------|
|--------------------------|-------------------------------|
|
| Gtr II
|--------------------------|-------------------------------|
|-8------------------------|-------------------------------|
|-7-7-7-5-5-5h7--7---7-5-5-|-5h7--7---7-5-5-5h7--7---7-5-5-|
|-5-5-5-5-5-5----5---5-5-5-|-5----5---5-5-5-5----5---5-5-5-|
|--------------------------|-------------------------------|
|--------------------------|-------------------------------|


|----------------------------|----------------------|
|----------------------------|----------------------|
|-5h7--7-7-7-5-5-7-x-x-12-14-|-14/15-12--12/14-12---|
|-5----5-5-5-5-5-5-x-x-------|----------------------|
|------------------x-x-10-12-|-12/13-10--10/12-10---|
|----------------------------|----------------------|
|
|----------------------------|----------------------|
|-8--------------------------|----------------------|
|-7----7---7-7-7-7-7---12-14-|-14/15-12--12/14-12---|
|-5----5---5-5-5-5-5---------|----------------------|
|----------------------10-12-|-12/13-10--10/12-10---|
|----------------------------|----------------------|


   Bridge
              1st-3rd      4th
    G          C9   D5       C    D5
                          4x
||-----------|------------||-----------------|
||o----------|------3----o||------3----------|
||-----------|-0----2-----||-0----2----------|
||--0--------|-x----0-----||-x----0----------|
||o-x--------|-3---------o||-3---------------|
||--3--------|------------||-----------------|
|
|                         4x
||-----------|------------||-----------------|
||o----------|-----------o||-----------------|
||-----------|------------||-----------------|
||-----------|------------||-----------------|
||o----------|-----------o||---------/5\-----|
||-----------|------------||-----------------|


 Verse 2
  G           B5        C7      D5
|---------------------|---------------------|
|---------------------|---------------------|
|-----4-x---x-----4-0-|-----3-0-----2h4p2p0-|
|-----x-x-x-x---------|---------0-0---------|
|-------x-x-x-2-2-----|-3-3-----------------|
|-3-3-----------------|---------------------|

  G           B5        C7      D5
|---------------------|----------------|
|---------------------|----------------|
|-----4-x---x-----4-0-|-----3-0-----2--|
|-----x-x-x-x---------|---------0-0-0--|
|-------x-x-x-2-2-----|-3-3------------|
|-3-3-----------------|----------------|

  G           B5        C7      D5
|---------------------|---------------------|
|---------------------|---------------------|
|-----4-x---x-----4-0-|-----3-0-----2h4p2p0-|
|-----x-x-x-x---------|---------0-0---------|
|-------x-x-x-2-2-----|-3-3-----------------|
|-3-3-----------------|---------------------|

  G           B5                Bb              D5
|-----------------------------|-----------------------|
|-----------------------------|-----------------------|
|-----4-4-4-4-4-4-4-4-4-4-4-4-|-3-3-3-3-3-3-3-3-------|
|-----------------------------|-----------------7-----|
|-------------2-2-2-2-2-2-2-2-|-1-1-1-1-1-1-1-1-5-----|
|-3-3-3-3-3-3-----------------|-----------------------|


   Chorus 2
    Em7       G           Em7       A7sus4
||----------------------|---------------------|
||o---3-3-3-3-3-3-3-3-3-|---3-3-3-3-3-3-3-3-3-|
||--0-0-0-0-0-0-0-0-0-0-|-0-0-0-0-0-0-0-0-0-0-|
||--2-2-2-2-2-0-0-0-0-0-|-2-2-2-2-2-2-2-2-2-2-|
||o-2-2-2-2-2-2-2-2-2-2-|-2-2-2-2-2-0-0---0-0-|
||--0---0-0---3-3---3---|-0---0-0-------------|

                         1st           2nd
  Cadd9     Em7             C9 G        C7
|-----------------------|------------||------------------|
|-3-3-3-3-3-3-3-3-3-3-3-|---3--3----o||------------------|
|-0-0-0-0-0-0-0-0-0-0-0-|---0--0-----||-3-3--3-3--3-3----|
|-2-2-2-2-0-2-2-2-2-2-2-|---2--0-----||-2-2--2-2--2-2----|
|-3-3-3-3-0-2-2-2-2-2-2-|---3--2----o||-3-3--3-3--3-3----|
|-----------0---0-0-0---|------3-----||------------------|


 Outro
|-------------------------10-----|----------------------|
|------------10h12p10------------|----------------------|
|-/12--14-12----------12------12-|-12--12----12-11-9-11-|
|------12------------------------|-10--10-10------------|
|--------------------------------|----------------------|
|--------------------------------|----------------------|

|-----------------------------------|----------------------|
|-----------10h12p10----10h12p10----|----------------------|
|-12--14-12----------12----------12-|-12--12----/14-11-----|
|-----12----------------------------|-10--10-10---------12-|
|-----------------------------------|----------------------|
|-----------------------------------|----------------------|

|-----------------------------|-----------------------|
|-----10----10h12p10----15----|-----------------------|
|-12-----12----------12-12-12-|-12--12----12-11-9-11--|
|-----------------------------|-10--10-10-------------|
|-----------------------------|-----------------------|
|-----------------------------|-----------------------|

|------------------------------|----------------------|-----------||
|------10----10h12p10----15----|----------------------|-----------||
|-/12-----12----------12-12-12-|-12--12----12-11-9-11-|-12--------||
|------------------------------|-10--10-10------------|--9--------||
|------------------------------|----------------------|-----------||
|------------------------------|----------------------|-----------||

Suggest correction
comments
print report bad tab
2 comments total.
0 reply
Switchfoot555 482 wrote on February 4 2008, 11:29 pm

Nice tab,but it needs some corrections like in the 2nd ed of the verse it goes:
e|--------------------|
G|--------------------|
B|-44444444444333333--|
D|------------------7-|
A|------------3333335-|
E|-33333222222--------|
And after you play A7sus4:
e|----------------|
G|----------------|
B|-5555522222-5---|
D|-5555522222-5-5-|
A|-3333300000-3-5-|
E|--------------3-|

0 reply
jstovall65 10 wrote on April 2 2016, 01:14 pm

Awesome tab! One of my all time favorite songs.

guest
You may want to rate the tab now too:
select rating
Wanna post a correction for this tab? Suggest correction