Oops, an error
Loading. Please wait.

Circles Bass Tab

1,908 views 3 this week
4 commentsread comments
1 2 3 4 5
excellent!
x 5
add to favorites
launch autoscroll
font size
0
reset
guitar tuner
Autoscroll
slow
fast
+/-
esc
set tempo
stop
Help us to improve Ultimate-Guitar.com Take our survey!
×
Author
Difficulty
intermediate
Artist: Switchfoot
Song: Circles
Album: Oh! Gravity
Tabber: Jay Kills


Intro  (Guitar Picking, then listen to song to get timing.
G|-----11----11-14-12----16----14------------| It's at 0:11 to be exact.
D|---/9---------------------16------/12-11---|                          =]
A|----------------------------------------12-|
E|-0-------0----------0-----------0----------| x1


Verse
G|-----11----11-14-12-----11-------------| 
D|---/9-----------------/9-----/12-11----|                          
A|-----------------------------------12--|
E|-0-------0----------0------0-----------| x2


Pre-Chorus ("Am I alive? Am I on Purpose?")
G|-----------------------------------------|
D|-----------------------------------------|
A|-/3---5----7---5-7---3---5---6---/10--9--|
E|----3--------7---------3-------7-----7---|


Chorus
G|--------------------------------------------------|
D|--------------------------------------------------|
A|-777777-/10-9---333333-/10-9---------5------------|
E|------------------------------333333---3---777777-| x2


Interlude (same as intro)
G|-----11----11-14-12----16----14------------| 
D|---/9---------------------16------/12-11---|                          
A|----------------------------------------12-|
E|-0-------0----------0-----------0----------|


Verse 2 (Same as verse 1, but most of it is an actave lower)
G|-----------------------------------------| It doesn't matter 
D|-------------------------------/12-11----|  Which octave you play                        
A|------9-----9-12-10-------9----------12--|   But Tim plays it lower
E|-0-/7-----0----------0-/7----0-----------| x2


Chorus 2 1st Time
G|--------------------------------------------------|
D|--------------------------------------------------|
A|-777777--REST--333333-/10-9----------5------------|
E|------------------------------333333---3--/777777-| 

Chorus 2 Second Time
G|-----------------------------------------------------------------------------|
D|-----------------------------------------------------------------------------|
A|-777777-/10-9---333333-/10-9---------5------------------------5--------------|
E|------------------------------333333---3--/88888888888/333333---3--/777777777|


Breakdown                                                  Play First Time Only        
G|------------------------------------------------777-444--------|-555-444-|
D|---------------------------------------------------------1-1-1-|---------|
A|-------101010-999-0-0-0--141414-121212---3-3-3-----------------|---------|
E|0-0-0----------------------------------------------------------|---------| x2

Acoustic Part, then bass joins back in  with this    Wait and then this:
G|----------9-11------------/12-11---------|        |----------/16--|
D|-/9-7---9------10--------9-------13------|        |---------------|
A|------5---------------10-----------------|        |-----/9--------|
E|-----------------------------------------|        |-/7------------|


Pre-Chorus 2
G|-------------------------|
D|-------------------------|
A|--------5----------------|
E|-333333---3-/77777777777-|


Ending Chorus
G|-----------------------------------------------------------------------------|
D|-----------------------------------------------------------------------------|
A|-777777-/10-9---333333-/10-9---------5------------------------5--------------|
E|------------------------------333333---3--/88888888888/333333---3--/777777777|

End on an open E


If you like my tabbing,
I will gladly tab any Switchfoot Song. 
Suggest correction
What's this?
You can suggest a correction to this tab. Community and Mods will review your correction and vote to approve or reject it.
comments
print report bad tab
4 comments total. Showing first comments.
0 reply
TIMAY21 2,084 wrote on August 9 2007, 04:16 pm

this is awesome!
thanks so much.

do you think you could tab Head Over Heels for bass?

0 reply
radjosh 12 wrote on November 2 2008, 08:01 pm

hey do u think u could tab this is home and dirty second hands for me

0 reply
radjosh 12 wrote on November 2 2008, 08:01 pm

for bass

guest
You may want to rate the tab now too:
select rating
Please do not post tabs as comments. Select "correction" instead!