Oops, an error
Loading. Please wait.

Circles Tab

6,017 views 3 this week
3 commentsread comments
1 2 3 4 5
accurate
x 4
add to favorites
launch autoscroll
font size
0
reset
how to read this tab
guitar tuner
Autoscroll
slow
fast
+/-
esc
set tempo
stop
Help us to improve Ultimate-Guitar.com Take our survey!
×
Author
Difficulty
intermediate
Intro: acoustic (weird strumming pattern) (repeat)
e-------------------------------------------------------------->
B-----3----------3----------3-----------3----------3----------->
G-------------------------------------------------------------->
D--242-242-42-242-242-42-242-242-242-242-42-242-242-42-242-242->
A-2-------2--2-------2--2-------2---2------2---2------2---2---->
E-------------------------------------------------------------->

Intro: guitar 1 (WHILE ACOUSTIC REPEATS, RIGHT BEFORE VERSE STARTS)
e----------------------->
B----------------------->
G----------------------->
D--------5-4-2-0-------->
A--2/7~----------2~----->
E----------------------->

Verse 1: acoustic (repeat)
e------------------------------------------------>
B-----3----------3----------3-----------3-------->
G------------------------------------------------>
D--242-242-42-242-242-42-242-242-242-242-42-242-->
A-2-------2--2-------2--2-------2---2------2----->
E------------------------------------------------>
Another day/Another sunrise/Another factory call/Another night/Another
sunset/Another freefall

Pre-chorus: guitar 1                      (twelve)
/e-7~----------------------------------------12~------->\
|B------------------------------/5~-------------------->|
|G-----7--5~------------------------------------------->|
|D----------------------------------------------------->|
|A----------------------------------------------------->|
|E----------------------------------------------------->|
|                                                       |
|pre-chorus: acoustic                                   |
|e-3-33-33-5-55-55-2-22-22-2-22-22-3-33-55-2-22-22-2-2->|
|B-3-33-33-5-55-55-5-55-55-5-55-55-3-33-55-4-44-44-4-4->|
|G-5-55-55-7-77-77-4-44-44-4-44-44-5-55-77-2-22-22-2-2->|
|D-5-55-55-7-77-77-2-22-22-2-22-22-5-55-77-4-44-44-4-4->|
|A-3-33-33-5-55-55-----------------3-33-55-2-22-22-2-2->|
\E----------------------------------------------------->/
Am I alive? Am I on purpose? Within the weakness/within the weakness…

Chorus: guitar 1
e-------------------------3333---------------------------------3333-------->
B-------------------------3333---------------------------------3333-------->
G-------------------------44444444+++++------------------------44444444444->
D-----5554445555555444----55554444+++++----5554445555555444----55554444444->
A-2222------3333------555555552222+++++2222------3333------555555552222222->
E-0000----------------33333333----+++++0000----------------33333333-------->
Spinning out in circles/In circles, in circles/Spinning out in circles/In
circles, in circles

Fill: acoustic
e-000000000000000000000000000000000000000000000000000000000000000000000000->
B-000000000000000000000000000000000000000000000000000000000000000000000000->
G-000000000000000000000000000000000000000000000000000000000000000000000000->
D-222222222222222222222222222222222222222222222222222222222222222222222222->
A-222222222222222222222222222222222222222222222222222222222222222222222222->
E-000000000000000000000000000000000000000000000000000000000000000000000000->

Verse 2: acoustic (Em)
e-000000000000000000000000000000000000000000000000000000000000000000000000->
B-000000000000000000000000000000000000000000000000000000000000000000000000->
G-000000000000000000000000000000000000000000000000000000000000000000000000->
D-222222222222222222222222222222222222222222222222222222222222222222222222->
A-222222222222222222222222222222222222222222222222222222222222222222222222->
E-000000000000000000000000000000000000000000000000000000000000000000000000->
Another day/Another lifetime/Another engine stalls/Another line/Another
freeway/Another freefall

---REPEAT PRE-CHORUS
---REPEAT CHORUS

fill: guitar 1 (repeat)
e------------------------------------------------------>
B----------------------------------333----------------->
G---------------------444222----------444-------555444->
D--------555444--------------------------1-1-1-1------->
A--------------0-0-0-0------3-3-3-3-------------------->
E-0-0-0-0---------------------------------------------->

Bridge: acoustic (repeat)
e-0-0000-00-0-0000-00-3-3333-33-2-2222-22->
B-0-0000-00-0-0000-00-3-3333-33-4-4444-44->
G-1-1111-11-5-5555-55-4-4444-44-4-4444-44->
D-2-2222-22-5-5555-55-5-5555-55-4-4444-44->
A-2-2222-22-3-3333-33-5-5555-55-2-2222-22->
E-0-0000-00-----------3-3333-33----------->
I’ve lost all that I wanted to leave/I’ve lost all that I wanted to
be/Don’t believe that there’s nothing that’s true/Don’t believe in this
modern machine! The modern machine

bridge: guitar 1
e-------------------------------------------------------------------------->
B-------------------------------------------------------------------------->
G-555555556666666777777788888888~-----------------------444444444444444444->
D-555555557777777777777799999999~------------------------------------------>
A-333333334444444555555566666666~------------------------------------------>
E-------------------------------------------------------------------------->
In circles/spinning, spinning


e--------------------------------------33333333--------0~------------------>
B--------------------------------------33333333--------0~------------------>
G--------444444------------------------44444444----44441~------------------>
D-5555555444444----5554445555555444----55555555555544442~------------------>
A-55555552222222222------3333------555555553333555522222~------------------>
E-3333333------0000----------------33333333----3333----0~------------------>
In circles, in circles/spinning out in circles, in circles, in circles, in
circles, in circles

Fill: guitar 1 (repeat)
/e---------02320--0------0-------02320--0------0-------02320--0------0---->\
|B--------0-----4--0~-----0~----0-----4--0~-----0~----0-----4--0~-----0~-->|
|G------------------------------------------------------------------------>|
|D------------------------------------------------------------------------>|
|A------------------------------------------------------------------------>|
|E------------------------------------------------------------------------>|
|                                                                          |
|Fill: acoustic (repeat)                                                   |
|e-0000000000000000000000000000000000000000000000000000000000000000000000->|
|B-0000000000000000000000000000000000000000000000000000000000000000000000->|
|G-0000000000000000000000000000000000000000000000000000000000000000000000->|
|D-2222222222222222222222222222222222222222222222222222222222222222222222->|
|A-2222222222222222222222222222222222222222222222222222222222222222222222->|
\E-0000000000000000000000000000000000000000000000000000000000000000000000->/
Suggest correction
What's this?
You can suggest a correction to this tab. Community and Mods will review your correction and vote to approve or reject it.
comments
print report bad tab
3 comments total.
-1 reply
IMA CHIRSTIAN 10 wrote on May 9 2007, 06:08 pm

this is like...so wrong its not even funny! I have the whole song all the way up to the chorus! just lookie!regular tunning

G[-------------7---------------------]
D[-----4----------------4-----------4]
A[--7------7--------7-----------7----]INTRO do as many as necesary
E[7--------------------------7-------]

G[-----4/9-----12/11----9-7-4]
D[-----x/x------x/x-----x-x-x]
A[-----2/7-----10/9-----7-5-2]INTRO NO.2
E[-0-------------------------]

Guitar 2
E[12nh-----------------]
B[12nh-------7nh-------]
G[-------7----------9-8]I'll giv u the details of wut it means
chorus
E[----------------------------------------------------------12nh]
B[----------------------------------------------------------12nh]
G[-------12-11---555---12---11---------7-4---2-xxxxxx-4---------]
D[--------x-x----xxx---x----x---555----x-x---1-xxxxxx-4---------]
A[-222---10-9----333---10---9---xxx----5-2---2-xxxxxx-2---------]
E[-000--------------------------333-----------------------------]


im gonna post the whole thing on www.christianguitar.com 'cept dont do the www. thingy....just type "switchfoot guitar tabs" and there should be one result that says switchfoot-christian guitar resources- switchfoot tabs" most likely not in that order but you'll know!

0 reply
IMA CHIRSTIAN 10 wrote on May 9 2007, 06:09 pm

and nh means natural harmonic that means hold bar (electric silver bar acoustic golden bar) lightle on the right of that same fret and / means slide

0 reply
SchrobZen 220 wrote on September 18 2015, 01:24 pm

So far I only looked at the intro, and I took a really close look at it.
It is very good but not entirely correct:
I listened to the song at 1/4 the original speed and I found out that there is one note too much in you tab. There are only 10 notes per riff (riff: from the start till | ) played by Switchfoot but your tab contain 11.
It should go:

Intro: acoustic (weird strumming pattern) (repeat)
e------------|----------------------------------------------->
B-----3------|----3----------3-----------3----------3-------->
G------------|----------------------------------------------->
D--242-24--24|-242-24--24-242-24--24--242-24--24-242--24--24->
A-2-------2--|2-------2--2-------2---2------2---2-------2---->
E------------|----------------------------------------------->

guest
You may want to rate the tab now too:
select rating
Please do not post tabs as comments. Select "correction" instead!