Oops, an error
Loading. Please wait.

Circles Chords

version 2
version 2

Whole song

1,034 views 1 this week
2 commentsread comments
1 2 3 4 5
please rate
add to favorites
launch autoscroll
font size
0
reset
transpose
0
reset
simplify chords
display chords
guitar tuner
Tab Pro tools
  • play this tab
  • loop segment
  • change instrument
  • show fretboard
  • metronome
×
Best way to learn
"Circles"
Autoscroll
slow
fast
+/-
esc
set tempo
stop
Contributor
Difficulty
Tabbers playing skills
novice
intermediate ++
-----------------------------------------------------------------------------
                                 CIRCLES                   SWITCHFOOT
-----------------------------------------------------------------------------

Tabbed by:hurricaneherman
Tuning:Standard

*Chords listed at end

Here are the chords for Switchfoot's song "Circles", from their album
Oh! Gravity.

These are a few riffs I'm going to use for this song.

  Riff 1     Riff 2     Riff 3     Riff 4     Riff5      Riff 6
e|3---2---| |--------| |7---5---| |10--7---| |8---7---| |5---3---|
B|0---0---| |3---0---| |0---0---| |0---0---| |0---0---| |0---0---|
G|--------| |0---0---| |--------| |--------| |--------| |--------|
D|--------| |--------| |--------| |--------| |--------| |--------|
A|--------| |--------| |--------| |--------| |--------| |--------|
E|--------| |--------| |--------| |--------| |--------| |--------|

~INTRO~

They play this riff throughout the intro, and the verse, but you can just
alternate between Em7, and Em if you want to.

e|------------------------------------------------------------------------|
B|--------3-----------------------------------3---------------------------|
G|--------------------0-----------0-----------------------0-----------0---|
D|----2-----------2-----------2-----------2-----------2-----------2-------|
A|2-----------2-----------2-----------2-----------2-----------2-----------|
E|------------------------------------------------------------------------|
~VERSE~

Em      Em7 Em      Em7    Em       Em7     Em   Em7
Another day another sunrise another factory call
Em      Em7  Em       Em7   Em       Em7      Em Em7
Another night another sunset another free fall

~PRE-CHORUS~

C     D   Em       Em7    Em                  B
Am I alive am I on purpose within the weakness within the weakness

~CHORUS~

Em Riff 1   C      Riff 2 G          B
   Spinning out in circles in circles in circles
Em Riff 1   C      Riff 2 G          B          Em Em7
   Spinning out in circles in circles in circles

~VERSE 2~

Em      Em7 Em      Em7     Em       Em7    Em    Em7
Another day another lifetime another engine stalls
Em      Em7 Em       Em7    Em       Em7      Em  Em7
Another line another freeway another free fall 

~REPEAT PRE-CHORUS~

~CHORUS 2~

Em Riff 1   C      Riff 2 G          B
   Spinning out in circles in circles in circles
Em Riff 1   C      Riff 2 G          C
   Spinning out in circles in circles in circles
G            B           Em(let ring)
   In circles in circles

~INTERLUDE~

Em Riff1 Am Riff3 C Riff4 B Riff5 X[2]

~BRIDGE~

          E                    C               G                    B
I've lost all that I wanted to leave I've lost all that I wanted to be
        E                                 C
Don't believe that there's nothing that's true
        G                      B                  C  A  D  B  Riff6  B
Don't believe in this modern machine the modern machine
           E5
In circles   spinning spinning

~CHORUS 3~

C            G          B
   In circles in circles in circles
Em Riff 1       C  Riff 2 G          C
   Spinning out in circles in circles in circles
G            B          Em
   In circles in circles

~OUTRO~

Em7 Em X[a lot]

*Chords used
       Em   Em7    C     D     B     G     Am    A     E5
e|-----0-----0-----0-----2-----2-----3-----0-----0-----7-----|
B|-----0-----3-----1-----3-----4-----0-----1-----2-----0-----|
G|-----0-----0-----0-----2-----4-----0-----2-----2-----9-----|
D|-----2-----2-----2-----0-----4-----0-----2-----2-----x-----|
A|-----2-----2-----3-----x-----2-----2-----0-----0-----x-----|
E|-----0-----0-----x-----x-----x-----3-----x-----x-----x-----|

=============================================================================
I hope you enjoy this tab, and that it is easy to understand.

Peace, Love, I'm out.
comments
We did not receive enough feedback on this tab! Please rate:
print report bad tab
1 2 3 4 5
2 comments total.
0 reply
ayanshashwat wrote on May 26 2015, 12:00 pm

This rocks man. hurricanehurman, i can sure count on ya to get switchfoot chords right. these are like the only correct and awesome ones in the net. *"thumbs up"*!!

0 reply
hurricaneherman wrote on May 26 2015, 03:53 pm

Thanks! I try my best. I'm glad you find them accurate. :)

I want to post or [tab]
guest
You may want to rate the tab now too:
select rating
Please do not post tabs as comments. Select "correction" instead!