Oops, an error
Loading. Please wait.

Come Home Tab

2,376 views 1 this week
no commentswrite comment
1 2 3 4 5
please rate
add to favorites
launch autoscroll
font size
0
reset
how to read this tab
guitar tuner
Autoscroll
slow
fast
+/-
esc
set tempo
stop
Help us to improve Ultimate-Guitar.com Take our survey!
×
Author
Difficulty
Tuning
novice
D A D G B E
-------------------------------------------------------------------------------
                             COME HOME - Switchfoot
-------------------------------------------------------------------------------


*Tuning: Drop D

================================================================


Intro:
e|--------------------------------------------------------------|
B|--------------------------------------------------------------|
G|----7-7777--7-7777--4-4444--4-----------------6-6666--6-6666--|
D|----0-0000--0-0000--0-0000--00-0-0-0--0-0000--0-0000--0-0000--|
A|----x-xxxx--x-xxxx--x-xxxx--x0-0-0-0--0-0000--x-xxxx--x-xxxx--|
E|----9-9999--9-9999--5-5555--50-0-0-0--0-0000--7-7777--6-7777--|

e|--------------------------------------------------------------|
B|--------------------------------------------------------------|
G|----7-7777--7-7777--4-4444--4-4444----------------------------|
D|----0-0000--0-0000--0-0000--0-0000--0-0000--0-0000--0-0000----|
A|----x-xxxx--x-xxxx--x-xxxx--x-xxxx--0-0000--0-0000--0-0000----|
E|----9-9999--9-9999--5-5555--5-5555--0-0000--0-0000--0-0000----|

e|-------------------------------|
B|-------------------------------|
G|-------------------------------|
D|------------000--[0-0000]------|
A|------------xxx--[x-xxxx]--4X--|
E|----7-7-7/9-999--[9-9999]------|


Verse (Part 1):
e|-----------------------------------------------------------------------|
B|-----------------------------------------------------------------------|
G|-----------------------------------------------------------------------|
D|----0-0000--0-0000--0-0000--0-0000--[0--0-0-0-0-]------0-0000--0-0000--|
A|----x-xxxx--x-xxxx--x-xxxx--x-xxxx--[x--x-x-x-x-]-4X---x-xxxx--x-xxxx--|
E|----9-9999--9-9999--5-5555--5-5555--[12-12121212]------7-7777--7-7777--|

e|-------------------------------------------|
B|-------------------------------------------|
G|-------------------------------------------|
D|----0-0000--0-0000--[0-0000]----0-0-0------| Repeat Verse Part 1
A|----x-xxxx--x-xxxx--[x-xxxx]-3X-x-0-0------|
E|----5-5555--5-5555--[9-9999]----9-0-0-7/9--|


(Part 2)
e|-------------------------------------------------------------------|
B|------------------------------------3-3333---3-3333----------------|
G|----7-7777--7-7777--4-4444--4-4444--2-2222---2-2222--6-66xxxxxxxx--|
D|----0-0000--0-0000--0-0000--0-0000--0-0000---0-0000--0-00xxxxxxxx--|
A|----x-xxxx--x-xxxx--x-xxxx--x-xxxx--0-0000---0-0000--x-xxxxxxxxxx--|
E|----9-9999--9-9999--5-5555--5-5555--0-0000---0-0000--7-77xxxxxxxx--|

e|--------------------------------------------------------------------|
B|--------------------------------------------------------------------|
G|----7-7777--7-7777--4-4444--4-4444--6-6666--6-6666--6-6666xxxxxxxx--|
D|----0-0000--0-0000--0-0000--0-0000--0-0000--0-0000--0-0000xxxxxxxx--|
A|----x-xxxx--x-xxxx--x-xxxx--x-xxxx--x-xxxx--x-xxxx--x-xxxxxxxxxxxx--|
E|----9-9999--9-9999--5-5555--5-5555--7-7777--7-7777--7-7777xxxxxxxx--|


Chorus:
e|--------------------------------------------------------------|
B|--------------------------------------------------------------|
G|--------------------7-7777--7-7777--11-11111111--11-11111111--|
D|----0-0000--0-0000--7-7777--7-7777--12-12121212--12-12121212--|
A|----0-0000--0-0000--5-5555--5-5555--9--9-9-9-9---9--9-9-9-9---|
E|----0-0000--0-0000--5-5555--5-5555--9--9-9-9-9---9--9-9-9-9---|

e|--------------------------------------------------------------|
B|--------------------------------------------------------------|
G|----7-7777--7-7777--11-11111111--11-11111111------------------|
D|----7-7777--7-7777--12-12121212--12-12121212--7-7777--7-7777--|
A|----5-5555--5-5555--9--9-9-9-9---9--9-9-9-9---4-4444--4-4444--|
E|----5-5555--5-5555--9--9-9-9-9---9--9-9-9-9---4-4444--4-4444--|


  X4:
e|------------|
B|------------|
G|----7-7777--|
D|----7-7777--| Repeat Chorus
A|----5-5555--|
E|----5-5555--|

-Intro: Line 2

-Verse

-Chorus, without last line

Post Chorus (Back to where your heart is):
e|--------------------------------------------------------------------|
B|--------------------------------------------------------------------|
G|----7-7777--7-7777--9-9999--9-9999--7-7777--7-7777--9-9999--9-9999--|
D|----7-7777--7-7777--9-9999--9-9999--7-7777--7-7777--9-9999--9-9999--|
A|----5-5555--5-5555--7-7777--7-7777--5-5555--5-5555--7-7777--7-7777--|
E|----5-5555--5-5555--7-7777--7-7777--5-5555--5-5555--7-7777--7-7777--|


Bridge:
e|----------------------------|
B|----------------------------|
G|----7-7777--7-7-7-7777-7-7--|
D|----7-7777--7-7-0-0000-0-0--|Repeat 2X
A|----5-5555--5-5-x-xxxx-x-x--|
E|----5-5555--5-5-9-9999-9-9--|

e|-------------------------------------------|
B|-------------------------------------------|
G|----7-7777--7-7-7-7777-7-7777--[9-9999]----|
D|----7-7777--7-7-0-0000-0-0000--[9-9999]-X2-|
A|----5-5555--5-5-x-xxxx-x-xxxx--[7-7777]----|
E|----5-5555--5-5-9-9999-9-9999--[7-7777]----|


-Verse (Part 2 Line 1) 2X

-Chorus

************************************
| /   slide up
| \   slide down
| x   Mute note
************************************
Suggest correction
What's this?
You can suggest a correction to this tab. Community and Mods will review your correction and vote to approve or reject it.
comments
We did not receive enough feedback on this tab! Please rate:
print report bad tab
1 2 3 4 5
guest
You may want to rate the tab now too:
select rating
Please do not post tabs as comments. Select "correction" instead!