Oops, an error
Loading. Please wait.

Company Car Tab

version 1
version 1

Acoustic

Whole song

Interactive

1,569 views 3 this week
1 commentread comment
1 2 3 4 5
excellent!
x 3
add to favorites
launch autoscroll
font size
0
reset
how to read this tab
guitar tuner
Tab Pro tools
  • play this tab
  • loop segment
  • change instrument
  • show fretboard
  • metronome
×
Best way to learn
"Company Car"
Autoscroll
slow
fast
+/-
esc
set tempo
stop
Contributor
===============================================================================
This tab is the acoustic version of Company Car by Switchfoot which is played live sometimes.

Playing the first 2 strings (e B) is optional during the whole song except for the main 
( ) is also optional

Here's the link to the video I used to tab this song:
http://www.youtube.com/watch?v=x0N--4Q0Z-w

You can watch it to find the strumming patterns, finger placements, etc.
This tab is probably 100% or close.

Please rate + comment, Enjoy!
-------------------------------------------------------------------------------
                         COMPANY CAR ACOUSTIC - Switchfoot
-------------------------------------------------------------------------------

Tabbed by: Estevan711

Tuning: Standard


Intro:
e|-------------------------------------------------------------|
B|-------------------------------------------------------------|
G|-----9----9-9-9-----9----9-9-9-----9----9-9-9-----9----9-9-9-|
D|-------------------------------------------------------------|
A|-----7----7-7-7-----7----7-7-7-----7----7-7-7-----7----7-7-7-|
E|-------------------------------------------------------------|

Verse (2x):
e|-------------------------------------------------------------|
B|-------------------------------------------------------------|
G|-----9----9-9-9-----9----9-9-9-----9----9-9-9-----8----8-8-8-|
D|-------------------------------------------------------------|
A|-----7----7-7-7-----7----7-7-7-----7----7-7-7-----9----9-9-9-|
E|--------------------5----5-5-5-----9----9-9-9-----7----7-7-7-|

e|-------------------------------------------------------------|
B|-------------------------------------------------------------|
G|-----6----6-6-6-----1----1-1-1-----6----6-6-6-----8----8-8-8-|
D|-----7----7-7-7-----2----2-2-2-----7----7-7-7-----9----9-9-9-|
A|-----7----7-7-7-----2----2-2-2-----7----7-7-7-----9----9-9-9-|
E|-----5----5-5-5-----0----0-0-0-----5----5-5-5-----7----7-7-7-|

Pre-Chorus:
e|------------------------------------------------------|
B|------------------------------------------------------|
G|-----9----9-9-9-----6----6-6-6-----3-3-3-----4--4--4--|
D|-----9----9-9-9-----7----7-7-7-----4-4-4-----4--4--4--|
A|-----x----x-x-x-----7----7-7-7-----4-4-4-----2--2--2--|
E|-----9----9-9-9-----5----5-5-5-----2-2-2----(2)(2)(2)-|

e|-------------------------------------------------------|
B|-------------------------------------------------------|
G|-----5-5-5-----6--6--6------8----8-8-8-----8----8-8-8--|
D|-----6-6-6-----6--6--6------9----9-9-9-----9----9-9-9--|
A|-----6-6-6-----4--4--4------9----9-9-9-----9----9-9-9--|
E|-----4-4-4----(4)(4)(4)-----7----7-7-7-----7----7-7-7--|

Chorus:
e|--------------------------------------------------|
B|--------------------------------------------------|
G|-----9----9--9--9------8----8-8-8-----x---4--5--6-|
D|-----9----9--9--9------9----9-9-9-----11--5--6--7-|
A|-----7----7--7--7------9----9-9-9-----11--5--6--7-|
E|----(0)--(0)(0)(0)-----7----7-7-7-----9---3--4--5-|

e|-----------------------------------------------------------------|
B|-----------------------------------------------------------------|
G|-----1----1-1-1-----5----5-5-5-----6----6-6-6-----x-----x--x--x--|
D|-----2----2-2-2-----6----6-6-6-----7----7-7-7-----10----10-10-10-|
A|-----2----2-2-2-----6----6-6-6-----7----7-7-7-----10----10-10-10-|
E|-----0----0-0-0-----4----4-4-4-----5----5-5-5-----8-----8--8--8--|

e|---------------------------------------------------------------|
B|---------------------------------------------------------------|
G|-----9----9--9--9-----8----8-8-8-----9----9-9-9-----6----6-6-6-|
D|-----9----9--9--9-----9----9-9-9-----9----9-9-9-----7----7-7-7-|
A|-----7----7--7--7-----9----9-9-9-----x----x-x-x-----7----7-7-7-|
E|----(0)--(0)(0)(0)----7----7-7-7-----9----9-9-9-----5----5-5-5-|

e|----------------------------------------------------x|
B|----------------------------------------------------x|
G|-----1----1-1-1-----3----3-3-3-----6----6-6-6-----8-x|
D|-----2----2-2-2-----4----4-4-4-----7----7-7-7-----9-x|
A|-----2----2-2-2-----4----4-4-4-----7----7-7-7-----9-x|
E|-----0----0-0-0-----2----2-2-2-----5----5-5-5-----7-x|


Repeat:
-Verse
-Pre-Chorus
-Chorus

Bridge:
e|---------------------------------------------|
B|---------------------------------------------|
G|----------6----------5----------4------------|
D|----------6----------5----------4----------4-|
A|-----4~---4-----3~---3-----2~---2-----1~---1-|
E|---------------------------------------------|

e|-------------------------------------------------------------------------------------------|
B|-------------------------------------------------------------------------------------------|
G|-----6----6-6-6-----1----1-1-1-----6----6-6-6-----3---3-3-3-----6-----6-6-6-----6----6-6-6-|
D|-----7----7-7-7-----2----2-2-2-----7----7-7-7-----4---4-4-4-----7-----7-7-7-----7----7-7-7-|
A|-----7----7-7-7-----2----2-2-2-----7----7-7-7-----4---4-4-4-----7-----7-7-7-----7----7-7-7-|
E|-----5----5-5-5-----0----0-0-0-----5----5-5-5-----2---2-2-2-----5-----5-5-5-----5----5-5-5-|
                                                 |==play this part softly===>

Repeat:
-Verse = with starting *palm muted*
-Pre-Chorus
-Chorus = Repeat last line 2x


Outro:
e|----------0~--|
B|----------0~--|
G|----4~----1~--|
D|----4~----2~--|
A|----2~----2~--|
E|----------0~--|


| /  slide up
| \  slide down
| h  hammer-on
| p  pull-off
| ~  vibrato
| +  harmonic
| x  Mute note
===============================================================================
comments
We did not receive enough feedback on this tab! Please rate:
print report bad tab
1 2 3 4 5
1 comment total.
+1 reply
jmk1387 wrote on July 30 2010, 11:01 pm

Sweet! I was just watching the acoustic youtube video and was hoping I could find a good tab for it and this is spot on. Thanks!

I want to post or [tab]
guest
You may want to rate the tab now too:
select rating
Please do not post tabs as comments. Select "correction" instead!