Oops, an error
Loading. Please wait.

Company Car Tab

version 1
version 1

Whole song

Interactive

4,729 views 3 this week
no commentswrite comment
1 2 3 4 5
excellent!
x 4
add to favorites
launch autoscroll
font size
0
reset
how to read this tab
guitar tuner
Tab Pro tools
  • play this tab
  • loop segment
  • change instrument
  • show fretboard
  • metronome
×
Best way to learn
"Company Car"
Autoscroll
slow
fast
+/-
esc
set tempo
stop
Contributor
Difficulty
novice
=========================                         =========================
Company Car---Switchfoot--------------------------Transfered by Asa Gaston
=========================                         ========================= 

Intro 2x
E|----------------------------------------------------------|
B|----------------------------------------------------------|
G|-9----9-9-9----9----9-9-9-9----9----9-9-9----9----9-9-9-9-|
D|----------------------------------------------------------|
A|-7----7-7-7----7----7-7-7-7----7----7-7-7----7----7-7-7-7-|
E|----------------------------------------------------------|

Verse 
E|----------------------------------------------------------|
B|----------------------------------------------------------|
G|-9----9-9-9----9----9-9-9-9----9----9-9-9----9----9-9-9-9-|
D|----------------------------------------------------------|
A|-7----7-7-7----7----7-7-7-7----7----7-7-7----7----7-7-7-7-|
E|----------------------------------------------------------|

E|------------------|
B|------------------|
G|------------------|
D|-7----2----7----9-|
A|-7----2----7----9-|
E|-5----0----5----7-|

E|----------------------------------------------------------|
B|----------------------------------------------------------|
G|-9----9-9-9----9----9-9-9-9----9----9-9-9----9----9-9-9-9-|
D|----------------------------------------------------------|
A|-7----7-7-7----7----7-7-7-7----7----7-7-7----7----7-7-7-7-|
E|----------------------------------------------------------|

E|------------------|
B|------------------|
G|------------------|
D|-7----2----7----9-|
A|-7----2----7----9-|
E|-5----0----5----7-|

“As time rolls by…”

E|----------------------------------------------------------------|
B|----------------------------------------------------------------|
G|----------------------------------------------------------------|
D|11-11-11---7-7-7----4-4-4----9-9-9----6-6-6---11-11-11----9-9-9-|
A|11-11-11---7-7-7----4-4-4----9-9-9----6-6-6---11-11-11----9-9-9-|
E|-9--9--9---5-5-5----2-2-2----7-7-7----4-4-4----9--9--9----7-7-7-|

E|-----------------|
B|-----------------|
G|-----------------|
D|-9-9-9-9-9-9-9-9-|
A|-9-9-9-9-9-9-9-9-|
E|-7-7-7-7-7-7-7-7-|

Chorus
E|-----------------------------------------------------------|
B|-----------------------------------------------------------|
G|-9----9-9-9-9----------------------------------------------|
D|-9----9-9-9-9-9----9-9-9-9-10----5-6-7--s-2----2-2-2-2---6-|
A|-7----7-7-7-7-9----9-9-9-9-10----5-6-7--s-2----2-2-2-2---6-|
E|--------------7----7-7-7-7-8-----3-4-5--s-0----0-0-0-0---4-|

E|-------------------------|
B|-------------------------|
G|-------------------------|
D|-6-6-6-6----7----7-7-7-7-|
A|-6-6-6-6----7----7-7-7-7-|
E|-4-4-4-4----5----5-5-5-5-|

E|----------|
B|----------|
G|----------|
D|-10-10-10-|
A|-10-10-10-|
E|-8--8--8--|

E|----------------------------------------------------------|
B|----------------------------------------------------------|
G|-9----9-9-9-9---------------------------------------------|
D|-9----9-9-9-9-9----9-9-9-9----11----11-11----7----7-7---2-|
A|-7----7-7-7-7-9----9-9-9-9----11----11-11----7----7-7---2-|
E|--------------7----7-7-7-7----9------9---9---5----5-5---0-|

E|-------------------------|
B|-------------------------|
G|-------------------------|
D|-0-0-0-0----2----2-2-2-2-|
A|-2-2-2-2----4----4-4-4-4-|
E|-2-2-2-2----4----4-4-4-4-|

E|-------------------|
B|-------------------|
G|-------------------|
D|-7----7-7-7-7----9-|
A|-7----7-7-7-7----9-|
E|-5----5-5-5-5----7-|

Verse

“I pass go…”

E|-------------------------------------------------------|
B|-------------------------------------------------------|
G|-------------------------------------------------------|
D|11-11-11---7-7-7----4-4-4----9-9-9----6-6-6---11-11-11-|
A|11-11-11---7-7-7----4-4-4----9-9-9----6-6-6---11-11-11-|
E|-9--9--9---5-5-5----2-2-2----7-7-7----4-4-4----9--9--9-|

E|--------------------------|
B|--------------------------|
G|--------------------------|
D|-9-9-9----9-9-9-9-9-9-9-9-|
A|-9-9-9----9-9-9-9-9-9-9-9-|
E|-7-7-7----7-7-7-7-7-7-7-7-|

Chorus

Bridge

E|--------------------------------------------------------------------|
B|--------------------------------------------------------------------|
G|--------------------------------------------------------------------|
D|-9-s-11-s----8-s-10-s---7-s-9-s----6-s-8-s----7----2----7----4----7-|
A|-9-s-11-s----8-s-10-s---7-s-9-s----6-s-8-s----7----2----7----4----7-|
E|-7-s-9--s----6-s-8-s----5-s-7-s----4-s-6-s----5----0----5----2----5-|

Verse
(He does something on the bass for the first half of the verse)

“Mike was right…”

E|----------------------------------------------------------|
B|----------------------------------------------------------|
G|-9----9-9-9----9----9-9-9-9----9----9-9-9----9----9-9-9-9-|
D|----------------------------------------------------------|
A|-7----7-7-7----7----7-7-7-7----7----7-7-7----7----7-7-7-7-|
E|----------------------------------------------------------|

E|------------------|
B|------------------|
G|------------------|
D|-7----2----7----9-|
A|-7----2----7----9-|
E|-5----0----5----7-|

E|----------------------------------------------------------------|
B|----------------------------------------------------------------|
G|----------------------------------------------------------------|
D|11-11-11---7-7-7----4-4-4----9-9-9----6-6-6---11-11-11----9-9-9-|
A|11-11-11---7-7-7----4-4-4----9-9-9----6-6-6---11-11-11----9-9-9-|
E|-9--9-9----5-5-5----2-2-2----7-7-7----4-4-4----9--9--9----7-7-7-|

E|-----------------|
B|-----------------|
G|-----------------|
D|-9-9-9-9-9-9-9-9-|
A|-9-9-9-9-9-9-9-9-|
E|-7-7-7-7-7-7-7-7-|

E|-----------------------------------------------------------|
B|-----------------------------------------------------------|
G|-9----9-9-9-9----------------------------------------------|
D|-9----9-9-9-9-9----9-9-9-9-10----5-6-7----2----2-2-2-2---6-|
A|-7----7-7-7-7-9----9-9-9-9-10----5-6-7----2----2-2-2-2---6-|
E|--------------7----7-7-7-7-8-----3-4-5----0----0-0-0-0---4-|

E|-------------------------|
B|-------------------------|
G|-------------------------|
D|-6-6-6-6----7----7-7-7-7-|
A|-6-6-6-6----7----7-7-7-7-|
E|-4-4-4-4----5----5-5-5-5-|

E|----------|
B|----------|
G|----------|
D|-10-10-10-|
A|-10-10-10-|
E|-8---8--8-|

E|-----------------------------------------------------------|
B|-----------------------------------------------------------|
G|-9----9-9-9-9----------------------------------------------|
D|-9----9-9-9-9-9----9-9-9-9----11----11-11----7----7-7----2-|
A|-7----7-7-7-7-9----9-9-9-9----11----11-11----7----7-7----2-|
E|--------------7----7-7-7-7----9-----9---9----5----5-5----0-|

E|-------------------------|
B|-------------------------|
G|-------------------------|
D|-2-2-2-2----4----4-4-4-4-|
A|-2-2-2-2----4----4-4-4-4-|
E|-0-0-0-0----2----2-2-2-2-|

E|-------------------|
B|-------------------|
G|-------------------|
D|-7----7-7-7-7----9-|
A|-7----7-7-7-7----9-|
E|-5----5-5-5-5----7-|
3x
E|--------------------------------------------------------------|
B|--------------------------------------------------------------|
G|--------------------------------------------------------------|
D|-2----2-2-2-2----4----4-4-4-4----7----7-7-7-7----9----9-9-9-9-|
A|-2----2-2-2-2----4----4-4-4-4----7----7-7-7-7----9----9-9-9-9-|
E|-0----0-0-0-0----2----2-2-2-2----5----5-5-5-5----7----7-7-7-7-|

End
E|---|
B|---|
G|---|
D|-2-|
A|-2-|
E|-0-|
comments
print report bad tab
I want to post or [tab]
guest
You may want to rate the tab now too:
select rating
Please do not post tabs as comments. Select "correction" instead!