Oops, an error
Loading. Please wait.

Daisy Tab

version 1
version 1

Intro

Whole song

Interactive

4,198 views 3 this week
1 commentread comment
1 2 3 4 5
please rate
add to favorites
launch autoscroll
font size
0
reset
how to read this tab
guitar tuner
Autoscroll
slow
fast
+/-
esc
set tempo
stop
Help us to improve Ultimate-Guitar.com Take our survey!
×
Author
Difficulty
Tuning
intermediate
C# G# C# F# A# D#
Ok I had been using the other tab for some time but i noticed that some things didnt 
right to me, so im making my own tab.  this is my first tab, sorry if its a little confusing.

** Remember this is Drop-d flat!!

*Intro
eb|--------------------------------------------------------------------------------|
Bb|--------------------------------------------------------------------------------|
Gb|---------9/11-1111-9x11-11------9/11-1111-9/11-11-------------------------------|
Db|-4---0-0-x----x-x--x----0---0-0-x----x-x--x----0--------------------------------|
Ab|-0---0-0-7/9--9-9--7/9--0---0-0-7/9--9-9--7/9--0--------------------------------|
Db|-0---0-0-0----0-0--0----0---0-0-0----0-0--0----0--------------------------------|

eb|--------------------------------------------------------------------------------|
Bb|--------------------------------------------------------------------------------|
Gb|-----9/11-1111-9x11-11------9/11-1111-9/11-11-----------------------------------|
Db|-0-0-x----x-x--x----0---0-0-x----x-x--x----0------------------------------------|
Ab|-0-0-7/9--9-9--7/9--0---0-0-7/9--9-9--7/9--0------------------------------------|
Db|-0-0-0----0-0--0----0---0-0-0----0-0--0----0------------------------------------|

*verse 1
eb|--x-------------------------x---------------------x-----------------------------|
Bb|--x-------------------------x---------------------x-----------------------------|
Gb|--x-------------------------7---------------------7-----------------------------|
Db|--7-------------------------6---------------------0-----------------------------|
Ab|--5-------------------------5---------------------x-----------------------------|
Db|--0-------------------------0---------------------9-----------------------------|
    Daisy, give yourself away   Look up at the rain   The beautiful display

eb|--------------------x----------------------x------------------------------------|
Bb|--------------------3----------------------x------------------------------------|
Gb|--------------------0----------------------7------------------------------------|
Db|--------------------x----------------------0------------------------------------|
Ab|--------------------5----------------------x------------------------------------|
Db|--------------------5----------------------8------------------------------------|
    Of power and surrender   Giving us today   When she gives herself away

eb|--------------------------------------------------------------------------------|
Bb|--------------------------------------------------------------------------------|
Gb|---------9/11-1111-9x11-11------9/11-1111-9/11-11-------------------------------|
Db|-4---0-0-x----x-x--x----0---0-0-x----x-x--x----0--------------------------------|
Ab|-0---0-0-7/9--9-9--7/9--0---0-0-7/9--9-9--7/9--0--------------------------------|
Db|-0---0-0-0----0-0--0----0---0-0-0----0-0--0----0--------------------------------|


eb|--x-----------------------x-------------------------x---------------------------|
Bb|--x-----------------------x-------------------------x---------------------------|
Gb|--x-----------------------7-------------------------7---------------------------|
Db|--7-----------------------6-------------------------0---------------------------|
Ab|--5-----------------------5-------------------------x---------------------------|
Db|--0-----------------------0-------------------------9---------------------------|
    Rain, another rainy day   Comes up from the ocean   Give herself away

eb|-------------------x------------------------------x-----------------------------|
Bb|-------------------3------------------------------x-----------------------------|
Gb|-------------------0------------------------------7-----------------------------|
Db|-------------------x------------------------------0-----------------------------|
Ab|-------------------5------------------------------x-----------------------------|
Db|-------------------5------------------------------8-----------------------------|
    She comes down easy   On rich and dead the same   When she gives herself away

eb|--------------------------------------------------------------------------------|
Bb|--------------------------------------------------------------------------------|
Gb|---------9/11-1111-9x11-11------------------------------------------------------|
Db|-4---0-0-x----x-x--x----0---0-0-0-----------------------------------------------|
Ab|-0---0-0-7/9--9-9--7/9--0---0-0-0-----------------------------------------------|
Db|-0---0-0-0----0-0--0----0---0-0-0-----------------------------------------------|

*Chorus
eb|-----------x-----------------x--------------x-----------------------------------|
Bb|-----------3-----------------3--------------x-----------------------------------|
Gb|-----------2-----------------0--------------3-----------------------------------|
Db|-----------0-----------------x--------------x-----------------------------------|
Ab|-----------0-----------------5--------------5-----------------------------------|
Db|-----------0-----------------5--------------5-----------------------------------|
    Let it go, Daisy let it go   Open up your fists

eb|--------------------x---------------------x-------------------------------------|
Bb|--------------------3---------------------x-------------------------------------|
Gb|--------------------2---------------------1-------------------------------------|
Db|--------------------0---------------------0-------------------------------------|
Ab|--------------------x---------------------2-------------------------------------|
Db|--------------------3---------------------2-------------------------------------|
    This fallen world   Doesn't hold your interest

eb|--------------------------------------------------------------------------------|
Bb|----------------------------0---------------------------------------------------|
Gb|------------------------0-----0-0-----------------------------------------------|
Db|----------------------2---2-------2---------------------------------------------|
Ab|--------------------0-----------------------------------------------------------|
Db|--------------------------------------------------------------------------------|
    Doesn't hold your soul    Daisy let it go

eb|--------------------------------------------------------------------------------|
Bb|--------------------------------------------------------------------------------|
Gb|---------9/11-1111-9x11-11------9/11-1111-9/11-11-------------------------------|
Db|-0---4-0-x----x-x--x----0---0-0-x----x-x--x----0--------------------------------|
Ab|-0---0-0-7/9--9-9--7/9--0---0-0-7/9--9-9--7/9--0--------------------------------|
Db|-0---0-0-0----0-0--0----0---0-0-0----0-0--0----0--------------------------------|

For Verse 2 just repeat verse 1 chords


Pain, give yourself a name
Call yourself contrition,
Avarice or blame
Giving isn't easy
And neither is the rain
When she gives herself away

Daisy, why another day
Why another sunrise
Who will take the blame
For our redemptive motion
And every rainy day
When he gives himself away

*Chorus
eb|-----------x-----------------x--------------x-----------------------------------|
Bb|-----------3-----------------3--------------x-----------------------------------|
Gb|-----------2-----------------0--------------3-----------------------------------|
Db|-----------0-----------------x--------------x-----------------------------------|
Ab|-----------0-----------------5--------------5-----------------------------------|
Db|-----------0-----------------5--------------5-----------------------------------|
    Let it go, Daisy let it go   Open up your fists

eb|--------------------x---------------------x-------------------------------------|
Bb|--------------------3---------------------x-------------------------------------|
Gb|--------------------2---------------------1-------------------------------------|
Db|--------------------0---------------------0-------------------------------------|
Ab|--------------------x---------------------2-------------------------------------|
Db|--------------------3---------------------2-------------------------------------|
    This fallen world   Doesn't hold your interest

eb|--------------------------------------------------------------------------------|
Bb|----------------------------0---------------------------------------------------|
Gb|------------------------0-----0-0-----------------------------------------------|
Db|----------------------2---2-------2---------------------------------------------|
Ab|--------------------0-----------------------------------------------------------|
Db|--------------------------------------------------------------------------------|
    Doesn't hold your soul    Daisy let it go

eb|---------------------------------------x----x----x----x----x--------------------|
Bb|---------------------------------------x----x----x----3----x--------------------|
Gb|---------9/11-1111-9x11-11-------------7----4----3----2----1--------------------|
Db|-4---0-0-x----x-x--x----0--------------x----x----x----0----x--------------------|
Ab|-0---0-0-7/9--9-9--7/9--0--------------5----5----5----x----2--------------------|
Db|-0---0-0-0----0-0--0----0--------------0----5----5----3----2--------------------|
                               Let it go...

eb|--------------------------------------------------------------------------------|
Bb|---------0----------------------------------------------------------------------|
Gb|-----0-----0-0-------------------9/11-1111-9x11-11------9/11-1111-9/11-11-------|
Db|---2---2-------2---------4---0-0-x----x-x--x----0---0-0-x----x-x--x----0--------|
Ab|-0-----------------------0---0-0-7/9--9-9--7/9--0---0-0-7/9--9-9--7/9--0--------|
Db|-------------------------0---0-0-0----0-0--0----0---0-0-0----0-0--0----0--------|
           Daisy let it go

eb|----------------------------------x-x-x-x-x-x-x-x-x-----------------------------|
Bb|----------------------------------x-x-x-x-x-x-x-x-x-----------------------------|
Gb|-----9/11-1111-9x11-11------------7-7-7-7-7-7-6-5-3-----------------------------|
Db|-0-0-x----x-x--x----0---0--0--0---x-0-0-x-0-0-x-x-x-----------------------------|
Ab|-0-0-7/9--9-9--7/9--0---0--0--0---5-0-0-5-0-0-4-3-5-----------------------------|
Db|-0-0-0----0-0--0----0---0--0--0---0-0-0-0-0-0-0-0-5-----------------------------|
                           Let it go

eb|-----------x-x-x-x-x-x-x-x-x-----------x-x-x-x-x-x-x-x-x------------------------|
Bb|-----------x-x-x-x-x-x-x-x-x-----------x-x-x-x-x-x-x-x-x------------------------|
Gb|-----------7-7-7-7-7-7-6-5-3-----------7-7-7-7-7-7-6-5-3------------------------|
Db|-----------x-0-0-x-0-0-x-x-x-----------x-0-0-x-0-0-x-x-x------------------------|
Ab|-----------5-0-0-5-0-0-4-3-5-----------5-0-0-5-0-0-4-3-5------------------------|
Db|-----------0-0-0-0-0-0-0-0-5-----------0-0-0-0-0-0-0-0-5------------------------|
    Let it go                    Let it go

eb|-----------x-x-x-x-x-x-x-x-x------------x---------------------------------------|
Bb|-----------x-x-x-x-x-x-x-x-x------------3---------------------------------------|
Gb|-----------7-7-7-7-7-7-6-5-3------------2---------------------------------------|
Db|-----------x-0-0-x-0-0-x-x-x------------0---------------------------------------|
Ab|-----------5-0-0-5-0-0-4-3-5------------0---------------------------------------|
Db|-----------0-0-0-0-0-0-0-0-5------------0---------------------------------------|
    Let it go                    Let it go
Suggest correction
Give kudos to tab author, rate the tab!
1 2 3 4 5
comments
print report bad tab
1 comment total.
0 reply
binky351 10 wrote on July 15 2009, 05:45 pm

you did an awesome job man!!! there isn't one error in this tab!
great job!!!!

guest
You may want to rate the tab now too:
select rating
Wanna post a correction for this tab? Suggest correction