Oops, an error
Loading. Please wait.

Daisy Tab

version 2
version 2

Whole song

Interactive

2,022 views 1 this week
3 commentsread comments
1 2 3 4 5
please rate
add to favorites
launch autoscroll
font size
0
reset
how to read this tab
guitar tuner
Autoscroll
slow
fast
+/-
esc
set tempo
stop
Help us to improve Ultimate-Guitar.com Take our survey!
×
Author
Difficulty
**CAPO ON THE FIRST FRET**

intro: guitar 1 (acoustic)
e---------------------------------------------------------------------->
B---------------------------------------------------------------------->
G------66---6-6---6-----66---6-6---6-----66---6-6---6-----66---6-6---6->
D-3--3-66---6-6---63--3-66---6-6---63--3-66---6-6---63--3-66---6-6---6->
A-4--4-66h8-8-8p6-64--4-66h8-8-8p6-64--4-66h8-8-8p6-64--4-66h8-8-8p6-6->
E-4--4-------------4--4-------------4--4-------------4--4-------------->

verse 1: guitar 1
e------------------------1--1--1--1-11--1--1--1--1--1--1--1------------->
B------------------------2--2--2--2-22--2--2--2--2--2--2--2--4--4--4--4->
G------------------------------------------------3--3--3--3--6--6--6--6->
D-3--3--3--3--5-55--5--5-4--4--4--4-44--4--4--4--4--4--4--4--7--7--7--7->
A-4--4--4--4--4-44--4--4-4--4--4--4-44--4--4--4--4--4--4--4--7--7--7--7->
E-4--4--4--4--4-44--4--4-------------------------2--2--2--2--5--5--5--5->
daisy give yourself away look up at the rain, the beautiful display of
power and surrender giving us today when she gives herself away

fill: guitar 1
e------------------------------------>
B------------------------------------>
G------66---6-6---6-----66---6-6---6->
D-3--3-66---6-6---63--3-66---6-6---6->
A-4--4-66h8-8-8p6-64--4-66h8-8-8p6-6->
E-4--4-------------4--4-------------->

verse 1: guitar 1
e------------------------1--1--1--1-11--1--1--1--1--1--1--1------------->
B------------------------2--2--2--2-22--2--2--2--2--2--2--2--4--4--4--4->
G------------------------------------------------3--3--3--3--6--6--6--6->
D-3--3--3--3--5-55--5--5-4--4--4--4-44--4--4--4--4--4--4--4--7--7--7--7->
A-4--4--4--4--4-44--4--4-4--4--4--4-44--4--4--4--4--4--4--4--7--7--7--7->
E-4--4--4--4--4-44--4--4-------------------------2--2--2--2--5--5--5--5->
rain, another rainy day, comes up from the ocean and gives herself away she
comes down easy on rich and debt the same when she gives herself away

fill: guitar 1
e------------------------------------>
B------------------------------------>
G------66---6-6---6-----66---6-6---6->
D-3--3-66---6-6---63--3-66---6-6---6->
A-4--4-66h8-8-8p6-64--4-66h8-8-8p6-6->
E-4--4-------------4--4-------------->
                               let it
chorus: guitar 1
e-7---7---7---6---6---6---5---5---5---4---4---4---3---3---3---2---2---2--->
B-------------------------7-7-7-7-7-7-5-5-5-5-5-5-4-4-4-4-4-4-4-4-4-4-4-4->
G-6-6-6-6-6-6-6-6-6-6-6-6----------------------------0---0---------------->
D----9---9-------8---8-------7---7-------6---6-------------------4---4---->
A------------------------------------------------------------------------->
E------------------------------------------------------------------------->
go, Daisy let it go open up your fist, this fallen world doesn’t hold your
interest, it doesn’t hold your soul daisy let it go

fill: guitar 1
e-1---------------------------------->
B-2---------------------------------->
G-1----66---6-6---6-----66---6-6---6->
D-3--3-66---6-6---63--3-66---6-6---6->
A-4--4-66h8-8-8p6-64--4-66h8-8-8p6-6->
E-4--4-------------4--4-------------->

verse 2: guitar 1
e------------------------1--1--1--1-11--1--1--1--1--1--1--1------------->
B------------------------2--2--2--2-22--2--2--2--2--2--2--2--4--4--4--4->
G------------------------------------------------3--3--3--3--6--6--6--6->
D-3--3--3--3--5-55--5--5-4--4--4--4-44--4--4--4--4--4--4--4--7--7--7--7->
A-4--4--4--4--4-44--4--4-4--4--4--4-44--4--4--4--4--4--4--4--7--7--7--7->
E-4--4--4--4--4-44--4--4-------------------------2--2--2--2--5--5--5--5->
pain, give yourself a name, call yourself contrition, avarice or blame
giving isn’t easy, neither is the rain and she gives herself away

fill: guitar 1
e------------------------------------>
B------------------------------------>
G------66---6-6---6-----66---6-6---6->
D-3--3-66---6-6---63--3-66---6-6---6->
A-4--4-66h8-8-8p6-64--4-66h8-8-8p6-6->
E-4--4-------------4--4-------------->

verse 2: guitar 1
e------------------------1--1--1--1-11--1--1--1--1--1--1--1------------->
B------------------------2--2--2--2-22--2--2--2--2--2--2--2--4--4--4--4->
G------------------------------------------------3--3--3--3--6--6--6--6->
D-3--3--3--3--5-55--5--5-4--4--4--4-44--4--4--4--4--4--4--4--7--7--7--7->
A-4--4--4--4--4-44--4--4-4--4--4--4-44--4--4--4--4--4--4--4--7--7--7--7->
E-4--4--4--4--4-44--4--4-------------------------2--2--2--2--5--5--5--5->
daisy why another day, why another sunrise, who will take the blame for all
redemptive motion and every rainy day He gives himself away

fill: guitar 1
e------------------------------------>
B------------------------------------>
G------66---6-6---6-----66---6-6---6->
D-3--3-66---6-6---63--3-66---6-6---6->
A-4--4-66h8-8-8p6-64--4-66h8-8-8p6-6->
E-4--4-------------4--4-------------->
                               let it
chorus: guitar 1
e-7---7---7---6---6---6---5---5---5---4---4---4---3---3---3---2---2---2--->
B-------------------------7-7-7-7-7-7-5-5-5-5-5-5-4-4-4-4-4-4-4-4-4-4-4-4->
G-6-6-6-6-6-6-6-6-6-6-6-6----------------------------0---0---------------->
D----9---9-------8---8-------7---7-------6---6-------------------4---4---->
A------------------------------------------------------------------------->
E------------------------------------------------------------------------->
go, Daisy let it go open up your fist, this fallen world doesn’t hold your
interest, it doesn’t hold your soul daisy let it go

fill: guitar 1
e-1---------------------------------->
B-2---------------------------------->
G-1----66---6-6---6-----66---6-6---6->
D-3--3-66---6-6---63--3-66---6-6---6->
A-4--4-66h8-8-8p6-64--4-66h8-8-8p6-6->
E-4--4-------------4--4-------------->
                               let it
bridge: guitar 1
e-7---76---76---6---65---55---54--4--4-4--42-2--21-1222-21~~->
B-7-7-77-7-77-7-7-7-76-6-66-6-6445445445445444-4422-22-222~~->
G-88-8-88-8-88-888-8888-8-88-88------------33-3-3111-1-111~~->
D--------------------------------------------------------3~~->
A--------------------------------------------------------4~~->
E--------------------------------------------------------4~~->
go......

fill 2: guitar 1
e-1-------------------------------------------------------------------->
B-2-------------------------------------------------------------------->
G-1----66---6-6---6-----66---6-6---6-----66---6-6---6-----66---6-6---6->
D-3--3-66---6-6---63--3-66---6-6---63--3-66---6-6---63--3-66---6-6---6->
A-4--4-66h8-8-8p6-64--4-66h8-8-8p6-64--4-66h8-8-8p6-64--4-66h8-8-8p6-6->
E-4--4-------------4--4-------------4--4-------------4--4-------------->
                                                                let it
bridge: guitar 2 (electric)
e---------------------------------------------------------------------->
B---------22222222---------22222222---------22222222---------22222222-->
G-------5433333333-------5433333333-------5433333333-------5433333333-->
D-3333333344444444-3333333344444444-3333333344444444-3333333344444444-->
A-4444444444444444-4444444444444444-4444444444444444-4444444444444444-->
E-44444444---------44444444---------44444444---------44444444---------->
  go        let it go        let it go, go    let it go    let it go
e--------------------------------------->
B---------22222222---------22222222----->
G-------5433333333-------5433333333----->
D-3333333344444444-3333333344444444-3~~->
A-4444444444444444-4444444444444444-4~~->
E-44444444---------44444444---------4~~->
  let it go, go   let it go  let it go...
Suggest correction
Give kudos to tab author, rate the tab!
1 2 3 4 5
comments
print report bad tab
3 comments total.
0 reply
switchfootrox 47 wrote on August 15 2006, 12:36 pm

holy crap dude what the heack is this!!! Switchfoot rarely to never play with a capo plus every one knows the tunning is atleast in drop D and half a step down

0 reply
bluesman_39 10 wrote on January 9 2007, 10:01 pm

boo! this is very wrong, the other one is at least alot closer

0 reply
Switchfoot555 482 wrote on August 20 2007, 01:31 pm

Great tab,but nearly impossible to play.Still very accurate.

guest
You may want to rate the tab now too:
select rating
Please do not post tabs as comments. Select "correction" instead!