Oops, an error
Loading. Please wait.

Dare You To Move Chords

version 1
version 1

Acoustic

Interactive

34,579 views 84 this week
no commentswrite comment
1 2 3 4 5
accurate
x 4
add to favorites
launch autoscroll
font size
0
reset
transpose
0
reset
simplify chords
display chords
guitar tuner
Autoscroll
slow
fast
+/-
esc
set tempo
stop
Help us to improve Ultimate-Guitar.com Take our survey!
×
Author
No Capo.

Slide up - >
Slide down - <

CHORD CHART:


E-
   e-----
   B-----
   G--11-
   D--11-
   A--9--
   E-----

Asus-
   e----
   B----
   G--2-
   D--2-
   A----
   E----

C#m-
   e----
   B----
   G--6-
   D--6-
   A--4-
   E----

B-
   e----
   B--8-
   G--9-
   D--9-
   A--7-
   E----

Bsus-
   e----
   B----
   G--4-
   D--4-
   A--2-
   E----

A-
   e----
   B----
   G--6-
   D--7-
   A--7-
   E--5-

------------------

INTRO:

Harder but sounds better-

       3x        3x        3x        Severalx
   e---0---------0---------0---------0-------------|
   B---12--------0---------9---------0-------------|
   G---9---------9---------9---------9-------------|
   D---11--------9---------9---------7-------------|
   A-----------------------------------------------|
   E-----------------------------------------------|

Easier but not as accurate-

       3x        3x       3x       Severalx
   e---7---------0--------4--------0---------------|
   B---0---------0--------0--------0---------------|
   G---6---------4--------4--------2---------------|
   D-----------------------------------------------|
   A-----------------------------------------------|
   E-----------------------------------------------|

               Repeat the intro throughout verse 1.

VERSES AND CHORDS:

Verse 1-


Welcome to the planet
Welcome to existence
Everyone's here
Everyone's here
Everybody's watching you now
Everybody waits for you now
What happens next?
What happens next?


Chorus-

               E
I dare you to move
               B
I dare you to move
               C#m                     Asus
I dare you to lift yourself up off the floor
               E
I dare you to move
               B
I dare you to move
                 C#m
Like today never happened
                 Asus
Today never happened before

(Right here they play the intro once.)

Verse 2-

                  Bsus > C#m < Bsus (2x) Asus
Welcome to the fallout
                Bsus > C#m < Bsus (2x) Asus
Welcome to resistance
               Bsus
The tension is here
               Asus
The tension is here
                E       Bsus    C#m   Asus
Between who you are and who you could be
               E      Bsus    C#m   Asus
Between how it is and how it should be


Chorus-

   E           Bsus
I dare you to move
   C#m         Asus
I dare you to move
              C#m           Bsus        Asus
I dare you to lift yourself up off the floor
              E
I dare you to move
              B
I dare you to move
       C#m  Bsus Asus
Like today never happened
Asus  Bsus  C#m       E
Today never happened, before

Bridge-
          E                     Bsus
Maybe redemption has stories to tell
          C#m                        Asus
Maybe forgiveness is right where you fell
              E                       Bsus
Where can you run to escape from yourself?
                Bsus
Where you gonna go?
                Asus
Where you gonna go?
               E
Salvation is here

(Intro optional)

Chorus-

   E           Bsus
I dare you to move
   C#m         Asus
I dare you to move
              C#m           Bsus        Asus
I dare you to lift yourself up off the floor
              E
I dare you to move
              B
I dare you to move
       C#m  Bsus Asus
Like today never happened

Asus  Bsus  C#m
Today never happened
C#m   Bsus  Asus(Hold)
Today never happened...
     E
...Before


OUTRO-

Harder but sounds better-

       3x        3x        3x        Severalx
   e---0---------0---------0---------0-------------|
   B---12--------0---------9---------0-------------|
   G---9---------9---------9---------9-------------|
   D---11--------9---------9---------7-------------|
   A-----------------------------------------------|
   E-----------------------------------------------|

Easier but not as accurate-

       3x        3x       3x       Severalx
   e---7---------0--------4--------0---------------|
   B---0---------0--------0--------0---------------|
   G---6---------4--------4--------2---------------|
   D-----------------------------------------------|
   A-----------------------------------------------|
   E-----------------------------------------------|


There ya go folks!!! my First Tab! Please rate and tell me what you think!!!
Suggest correction
comments
print report bad tab
guest
You may want to rate the tab now too:
select rating
Please do not post tabs as comments. Select "correction" instead!