Oops, an error
Loading. Please wait.

Dare You To Move Tab

version 3
version 3
14,233 views 3 this week
1 commentread comment
1 2 3 4 5
worth learning
x 10
add to favorites
launch autoscroll
font size
0
reset
how to read this tab
guitar tuner
Tab Pro tools
  • play this tab
  • loop segment
  • change instrument
  • show fretboard
  • metronome
×
Best way to learn
"Dare You To Move"
Autoscroll
slow
fast
+/-
esc
set tempo
stop
-----------------------------------------------------------------------------
                         Dare You To Move- Switchfoot
-----------------------------------------------------------------------------
Tabbed by:Visitor
Email:AllAroundKeever@Yahoo.com
Tuning:EADGBe

(PART A)                                        (PART B)
e|-777-000-000-0000000-0000000000000000-(x4)-0-(x16)-0-(x16)-----------------|
B|-000-000-999-0000000-0000000000000000------0-------0-----------------------|
G|-999-999-999-9999999-9999999999999999------9-------9-----------------------|
D|-999-999-999-9999999-7777777777777777------7-------7-----------------------|
A|-------------------------------------------9-------12----------------------|
E|---------------------------------------------------------------------------|

play (PART A) Strum throughout entire song except for chorus
then (PART B)

(CHORUS)
Guitar 1
e|---------------------------------------------------------------------------|
B|---------------------------------------------------------------------------|
G|---------------------------------------------------------------------------|
D|2---------9---------7-------5---2-------9-------7-------9------------------|
A|2---------9---------7-------5---2-------9-------7-------9------------------|
E|0---------7---------5-------7---0-------7-------5-------7------------------|

Guitar 2
e|777------------------------------------------------------------------------|
B|000------------------------------------------------------------------------|
G|999---(just strum that throughout the chorus)------------------------------|
D|999------------------------------------------------------------------------|
A|---------------------------------------------------------------------------|
E|---------------------------------------------------------------------------|

e|---------------------------------------------------------------------------|
B|---------------------------------------------------------------------------|
G|---------------------------------------------------------------------------|
D|9/11-11-11---9-11-11-11-(x2)-444--xx--444--xx--44-66-777xx777xx77-9/11-11--|
A|9/11-11-11---9-11-11-11-----444--xx--444--xx--44-66-777xx777xx77--9/11-11--|
E|7/9--9--9----7/9--9--9-----20h2-xx--20h2-xx--22-44-555xx555xx55---7/9--9---|

e|---------------------------------------------------------------------------|
B|---------------------------------------------------------------------------|
G|---------------------------------------------------------------------------|
D|11---9-11-11-11-(x2)-------------------------------------------------------|
A|11---9-11-11-11------------------------------------------------------------|
E|9----7/9--9--9-------------------------------------------------------------|

(CHORUS)

e|---------------------------------------------------------------------------|
B|---------------------------------------------------------------------------|
G|999999----------999999-77777777--------------------------------------------|
D|999999-77777777-999999-77777777-11-11-11-11-11-11-11--77777777-9-----------|
A|777777-77777777-777777-77777777-11-11-11-11-11-11-11--77777777-9-----------|
E|000000-55555555-000000-55555555--9--9--9--9--9--9--9--55555555-7-----------|

(Solo):
e|0000000000000000-0--0--0--0--0--0--0--0--0--0--0--0--0--0--0--0--0--0--0---|
B|5557555555555555-10-10-10-10-10-10-10-10-10-10-10-10-10-10-10-10-12-12-12--|
G|---------------------------------------------------------------------------|
D|---------------------------------------------------------------------------|
A|---------------------------------------------------------------------------|
E|---------------------------------------------------------------------------|

e|0--0--0--0--0--0--0--0--0--0--0--0--0--0--0--0--0--0--0--0--0--0--0--0--0--|
B|12-12-12-12-12-12-12-12-12-12-12-12-12-17-17-17-17-17-17-17-17-17-17-17-17-|
G|---------------------------------------------------------------------------|
D|---------------------------------------------------------------------------|
A|---------------------------------------------------------------------------|
E|---------------------------------------------------------------------------|

e|0--0--0--0-----------------------------------------------------------------|
B|17-17-17-17----------------------------------------------------------------|
G|---------------------------------------------------------------------------|
D|---------------------------------------------------------------------------|
A|---------------------------------------------------------------------------|
E|---------------------------------------------------------------------------|

(CHORUS)

e|00000000-000000----------00-00000000-000000---------------------------0----|
B|00000000-000000-22222222-00-00000000-000000-222222--------222222------0----|
G|11111111-444444-22222222-44-11111111-444444-222222--------222222-4444-1----|
D|22222222-444444-22222222-44-22222222-444444-222222-444444-222222-4444-2----|
A|22222222-222222-00000000-22-22222222-222222-000000-444444-000000-2222-2----|
E|00000000--------------------00000000---------------222222-------------0----|
comments
print report bad tab
1 comment total.
0 reply
wEiRdDeHi wrote on December 10 2004, 12:00 am

e-|---0
b-|---0
g-|---9
d-|---7
a-|---12
e-|----

That's wrong. You don't play the 12th fret on the A string. It's the same as the 7th fret on the D string.

I want to post or [tab]
guest
You may want to rate the tab now too:
select rating
Please do not post tabs as comments. Select "correction" instead!