Oops, an error
Loading. Please wait.

Dare You To Move Tab

version 4
version 4
8,556 views 1 this week
1 commentread comment
1 2 3 4 5
accurate
x 4
add to favorites
launch autoscroll
font size
0
reset
how to read this tab
guitar tuner
Tab Pro tools
  • play this tab
  • loop segment
  • change instrument
  • show fretboard
  • metronome
×
Best way to learn
"Dare You To Move"
Autoscroll
slow
fast
+/-
esc
set tempo
stop
Contributor
Dare you to move
by "IamJonsCranium"

I basically copied "InTheEnd88's" tab and made correction.  His was pretty accurate.
The main changes were when the electric comes in during the verses, and my bridge was
different.  The strumming patters are not correct, and I wrote it for only 1 guitar,
which ever is dominant.  If some part is confusing, write a comment, I check my tabs
periodically for comments and corrections.

intro (GTR1):

E|-0--0--0-0-0-0-0-0-0--0--0--0--|
B|-12-12-0-0-9-9-0-0-10-10-10-10-|
G|-9--9--9-9-9-9-9-9-9--9--9--9--|
D|-11-11-9-9-9-9-9-9-7--7--7--7--|
A|-------------------------------|
E|-------------------------------|



Verse 1: same as intro

then:

'Everyone's here...'
E|-0-0--|
B|-0-0--|
G|-6-8--|
D|-7-9--| 
A|-7-9--|
E|------|

repeat intro

then:

'What happens next...'
E|-0-0--|
B|-0-0--|
G|-3-8--|
D|-4-9--| 
A|-4-9--|
E|------|


Chorus:

E|---------------------------------------|
B|---------------------------------------|
G|-9-9-9-9-9-8-8-8-8-8-6-6-6-6-6-6-6-6-8-|
D|-9-9-9-9-9-9-9-9-9-9-7-7-7-7-7-7-7-7-9-| x2 (2nd time end on the B)
A|-7-7-7-7-7-9-9-9-9-9-7-7-7-7-7-7-7-7-9-|
E|-0-0-0-0-0-7-7-7-7-7-5-5-5-5-5-5-5-5-7-|


INTRO x2

Verse 2:

E|------------------------------------|
B|------------------------------------|
G|------------------------------------|  (2x's first time, 1x second time
D|-9/11-11-11-9/11-11-11-11-9--7/5----|
A|-x-x--x--x--x-x--x--x--x--x---------|
E|-7/9--9--9--7/9--9--9--9--7---------|


E|-------------------------------|
B|-------------------------------|
G|-------------------------------|
D|-44------44------4/6-6-777/9---|
A|-xx------xx------x---x-xxx-----|
E|-22-0h2--22-0h2--2/4-4-555/7---|
(repeat  twice)

   (to chorus)


Bridge:

E|----------------------------|
B|----------------------------|
G|-9-9-9-9-9-9-2-2-2-2-2-2----|
D|-9-9-9-9-9-9-2-2-2-2-2-2----| (repeat 3x's)
A|-7-7-7-7-7-7-0-0-0-0-0-0----|
E|----------------------------|

then at 'where ya gonna go...'

E|-------------------|
B|-------------------|
G|-6-6-6-6-6-6-6-8---|
D|-7-7-7-7-7-7-7-9~~-|
A|-7-7-7-7-7-7-7-9~~-|
E|-------------------|


Solo:

E|-0-0-0-0-0-0-0-0-0-0-0-0-0-0-0-7-7-7-7-7-7-11-11-11-12-12-12-12-12-|
B|-5-5-5-5-7-7-7-7-9-9-9-9-9-9-9-5-5-5-5-5-5-9--9--9--10-10-10-10-10-|
G|-------------------------------------------------------------------|
D|-------------------------------------------------------------------|
A|-------------------------------------------------------------------|
E|-------------------------------------------------------------------|


Chorus: repeat chorus as before, except at one point he sings
'today never happens' over 3 times, and the 
guitarist goes from this:

'today never happened  today never happened          today never happened'
E|---|                |---|                                     |---|
B|---|                |---|                                     |---|
G|-6-|                |-9-|                                     |-8-|
D|-7-| to this        |-9-| then back, finishing chorus with    |-9-|
A|-7-|                |-7-|                                     |-9-|
E|-5 |                |-0-|                                     |-7-|

end the song on

before
E|---|
B|---|
G|---|
D|-2-|
A|-2-|
E|-0-|
comments
print report bad tab
1 comment total.
0 reply
aron444 wrote on August 8 2005, 12:00 am

Good job on the Welcome to the fallout part.

I want to post or [tab]
guest
You may want to rate the tab now too:
select rating
Please do not post tabs as comments. Select "correction" instead!