Oops, an error
Loading. Please wait.

Dare You To Move Tab

version 5
version 5
241,810 views 258 this week
34 commentsread comments
1 2 3 4 5
excellent!
x 120
add to favorites
launch autoscroll
font size
0
reset
how to read this tab
guitar tuner
Tab Pro tools
  • play this tab
  • loop segment
  • change instrument
  • show fretboard
  • metronome
×
Best way to learn
"Dare You To Move"
Autoscroll
slow
fast
+/-
esc
set tempo
stop
Contributor
Dare you to move by: Switchfoot

Tab by: Aaron Meredith

Standard Tuning- (E-A-D-G-B-e)

h = hammer-on
b = bend string
/ = slide up
\ = slide down 
~ = let ring


Intro:
e|--0-0-0--000--000--00000000--0000000000000000---|
B|-121212--000--999--00000000--0000000000000000---|
G|--9-9-9--999--999--99999999--9999999999999999---|x2
D|-111111--999--999--99999999--7777777777777777---|
A|------------------------------------------------|
E|------------------------------------------------|

Verse #1:
e|--0-0-0--000--000--00000000--0000000000000000---|
B|-121212--000--999--00000000--0000000000000000---|
G|--9-9-9--999--999--99999999--9999999999999999---|x2
D|-111111--999--999--99999999--7777777777777777---|
A|------------------------------------------------|
E|------------------------------------------------|

 ("everyone's here")                     or:
e|--0000000000000000--0000000000000000--|--0000000000000000--000000000000000|  
B|--0000000000000000--0000000000000000--|--0000000000000000--000000000000000|
G|--9999999999999999--9999999999999999--|--6666666666666666--999999999999999|
D|--8888888888888888--7777777777777777--|--4444444444444444--777777777777777|
A|--9999999999999999--------------------|-----------------------------------|
E|--------------------------------------|-----------------------------------|
  (this is what I play)                  (this is what they play)

Verse #2:
e|--0-0-0--000--000--00000000--0000000000000000---|
B|-121212--000--999--00000000--0000000000000000---|
G|--9-9-9--999--999--99999999--9999999999999999---|x2
D|-111111--999--999--99999999--7777777777777777---|
A|------------------------------------------------|
E|------------------------------------------------|

 ("what happens next")
e|--0000000000000000--0000000000000000----|
B|--0000000000000000--0000000000000000----|
G|--4444444444444444--8888888888888888----|
D|--5555555555555555--9999999999999999----|
A|--5555555555555555--9999999999999999----|
E|--3333333333333333--7777777777777777----|



Chorus: Guitar 1
e|--0000000000000000--0000000000000000--0000000000000000000000000000--00--|
B|--0000000000000000--0000000000000000--0000000000000000000000000000--00--|
G|--9999999999999999--8888888888888888--6666666666666666666666666666--88--|
D|--9999999999999999--9999999999999999--7777777777777777777777777777--99--|
A|--7777777777777777--9999999999999999--7777777777777777777777777777--99--|
E|--------------------7777777777777777--5555555555555555555555555555--77--|

e|--0000000000000000--0000000000000000--0000000000000000---00--|
B|--0000000000000000--0000000000000000--0000000000000000---00--|
G|--9999999999999999--8888888888888888--6666666666666666---88--|
D|--9999999999999999--9999999999999999--7777777777777777---99--|
A|--7777777777777777--9999999999999999--7777777777777777---99--|
E|--------------------7777777777777777--5555555555555555---77--|


Chorus: Guitar 2
e|------------------------------------------------------------------------|
B|------------------------------------------------------------------------|
G|--9~--------------------------------------------------------------------|
D|--9~----------------9~----------------7~----------------------------9---|
A|--7~----------------9~----------------7~----------------------------9---|
E|--------------------7~----------------5~----------------------------7---|

e|-------------------------------------------------------------|
B|-------------------------------------------------------------|
G|--9~-----------------------------------------------------9---|
D|--9~----------------9~----------------7~-----------------9---|
A|--7~----------------9~----------------7~-----------------7---|
E|--------------------7~----------------5~---------------------|



REPEAT INTRO:



REPEAT VERSE #1: (w/ guitar 2 below)

Distorted guitar 2: (octives)
e|--------------------------------------------------------------------------|
B|--------------------------------------------------------------------------|
G|--------------------------------------------------------------------------|
D|--9-111111--9-111111-1111-9-9-------44-----44-----44-66\7777-7777--77-99--|
A|--x--x-x-x--x--x-x-x--x-x-x-x-(x2)--xx-----xx-----xx-xx-xxxx-xxxx--xx-xx--|
E|--7/-9-9-9--7/-9-9-9--9-9-7-7-------22-0h2-22-0h2-22-44\5555-5555--55-77--|

e|--------------------------------------------------------------------------|
B|--------------------------------------------------------------------------|
G|--------------------------------------------------------------------------|
D|--9-111111--9-111111-1111-9-9-------44-----44-----44-66\7777-7777--77-99--|
A|--x--x-x-x--x--x-x-x--x-x-x-x-------xx-----xx-----xx-xx-xxxx-xxxx--xx-xx--|
E|--7/-9-9-9--7/-9-9-9--9-9-7-7-------22-0h2-22-0h2-22-44\5555-5555--55-77--|





REPEAT CHORUS:




Bridge: Guitar 1
e|--0000000000000000--0000000000000000--0000000000000000--0000000000000000--
B|--0000000000000000--0000000000000000--0000000000000000--0000000000000000--
G|--9999999999999999--6666666666666666--9999999999999999--6666666666666666--
D|--9999999999999999--7777777777777777--9999999999999999--7777777777777777--
A|--7777777777777777--7777777777777777--7777777777777777--7777777777777777--
E|--------------------5555555555555555--------------------5555555555555555--

e --0000000000000000--0000000000000000--0~-----0~--|
B --0000000000000000--0000000000000000--0~-----0~--|
G --6666666666666666--6666666666666666--3~-----8~--|
D --6666666666666666--7777777777777777--4~-----9~--|
A --4444444444444444--7777777777777777--4~-----9~--|
E --------------------5555555555555555--2~-----7~--|

Bridge: Guitar 2
e|--------------------------------------------------------------------------
B|--------------------------------------------------------------------------
G|--9~----9~--9~-9----------------------9~----9~-9~-9-----------------------
D|--9~----9~--9~-9----7~----7~--7~-7~---9~----9~-9~-9----7~----7~--7~-7~----
A|--7~----7~--7~-7----7~----7~--7~-7~---7~----7~-7~-7----7~----7~--7~-7~----
E|--------------------5~----5~--5~-5~--------------------5~----5~--5~-5~----

e --------------------------------------0~---------|
B --------------------------------------0~---------|
G --6~----6~--6~-6----------------------3~---------|
D --6~----6~--6~-6----7~----7~--7~-7----4~---------|
A --4~----4~--4~-4----7~----7~--7~-7----4~---------|
E --------------------5~----5~--5~-5----2~---------|


Solo:
e|--0000-000000000000---0-0-0-0-0-0-0-0-0-0-0-0-0-0-0-0----
B|--7779-555555555555--10101010101010101010101010101010----
G|---------------------------------------------------------
D|---------------------------------------------------------
A|---------------------------------------------------------
E|---------------------------------------------------------

e -0-0-0-0-0-0-0-0-0-0-0-0---0--0--0--0--0--0--0--0--0--0--0--0--0--0--0--0-|
B 121212121212121212121212--15b15b15b15b15b15b15b15b15b15b15b15b15b15b15b15b|
G --------------------------------------------------------------------------|
D ---------------------------(some have said that the 0's are supposed)-----|
A ---------------------------(to be 11's on this last part, play what)------|
E ---------------------------(you like best, I like it as shown myself)-----|


Chorus: Guitar 1
e|--0000000000000000--0000000000000000--0000000000000000000000000000--00--|
B|--0000000000000000--0000000000000000--0000000000000000000000000000--00--|
G|--9999999999999999--8888888888888888--6666666666666666666666666666--88--|
D|--9999999999999999--9999999999999999--7777777777777777777777777777--99--|
A|--7777777777777777--9999999999999999--7777777777777777777777777777--99--|
E|--------------------7777777777777777--5555555555555555555555555555--77--|

e|--0000000000000000--0000000000000000--0000000000000000--0000000000000000-|
B|--0000000000000000--0000000000000000--0000000000000000--0000000000000000-|
G|--9999999999999999--8888888888888888--6666666666666666--6666666666666666-|
D|--9999999999999999--9999999999999999--7777777777777777--6666666666666666-|
A|--7777777777777777--9999999999999999--7777777777777777--4444444444444444-|
E|--------------------7777777777777777--5555555555555555-------------------|

e|--0000000000000000--00000---0-----|
B|--0000000000000000--00000---0-----|
G|--6666666666666666--88888--\1~----|
D|--7777777777777777--99999--\2~----|
A|--7777777777777777--99999--\2~----|
E|--5555555555555555--77777--\0~----|



Chorus: Guitar 2 (listen for alternate strumming)
e|--0~--------------------------------------------------------------------|
B|--0~--------------------------------------------------------------------|
G|--1~--------------------------------------------------------------------|
D|--2~----------------9~----------------7~----------------------------9---|
A|--2~----------------9~----------------7~----------------------------9---|
E|--0~----------------7~----------------5~----------------------------7---|

e|-------------------------------------------------------------|
B|-------------------------------------------------------------|
G|--9~----------------------------------------------------6~---|
D|--9~----------------9~----------------7~----------------6~---|
A|--7~----------------9~----------------7~----------------4~---|
E|--------------------7~----------------5~---------------------|

e|-----------------------------------|
B|-----------------------------------|
G|-----------------------------------|
D|--7~----------------9~------\2~----|
A|--7~----------------9~------\2~----|
E|--5~----------------7~------\0~----|
comments
print report bad tab
34 comments total. Showing first comments. show 1 bad comment
+2 reply
aron444 wrote on April 23 2006, 02:07 pm

Glad you liked the tab. Ya, I watched them play it on exclusive performance (Yahoo) and there, they played it the way I have it. Did your vewrsion tab out right cuz I tried it and I can't get it to sound like the song with those chord shapes. I didn't use the thumb cuz theres no way that would be easier than the way I have it. Let me know.

e|--0-0-0--000--000--00000000--0000000000000000---|
B|-121212--000--999--00000000--0000000000000000---|
G|--9-9-9--999--999--99999999--9999999999999999---|x2
D|-111111--999--999--99999999--7777777777777777---|
A|------------------------------------------------|
E|------------------------------------------------|

+1 reply
paxter wrote on October 11 2006, 10:20 pm

gracias. i love this tab.

I want to post or [tab]
guest
You may want to rate the tab now too:
select rating
Please do not post tabs as comments. Select "correction" instead!