Oops, an error
Loading. Please wait.

Dare You To Move Tab

version 7
version 7
7,654 views 3 this week
2 commentsread comments
1 2 3 4 5
accurate
x 6
add to favorites
launch autoscroll
font size
0
reset
how to read this tab
guitar tuner
Autoscroll
slow
fast
+/-
esc
set tempo
stop
Help us to improve Ultimate-Guitar.com Take our survey!
×
Contributor
-------------------------------------------------------------------------------
                             DARE YOU TO MOVE - Switchfoot
-------------------------------------------------------------------------------
Tabbed by: Jeremy (guitardude98)

Tuning: Standard (ebgdae)

This is the version from the album The Beautiful Letdown
I'm only tabbing the electric guitar parts for this song.
It should be accurate.

Play this quietly before the first chorus
  "What happens next..........................................what happens next"
e|---------------------------------------------------------------------------|
B|---------------------------------------------------------------------------|
G|---------------------------------------------------------------------------|
D|----------------5------------------------------9---------------------------|
A|----------------5------------------------------9---------------------------|
E|----------------3------------------------------7---------------------------|

Chorus
"I dare you to move...I dare you to move...I dare you to lift yourself up..."
e|---------------------------------------------------------------------------|
B|---------------------------------------------------------------------------|
G|---------------9-----------------------------------------------------------|
D|---------------9------------------9-------------------7--------------------|
A|---------------7------------------9-------------------7--------------------|
E|---------------0------------------7-------------------5--------------------|

"I dare you to move...I dare you to move...like today never happened"
e|---------------------------------------------------------------------------|
B|---------------------------------------------------------------------------|
G|---------------9-----------------------------------------------------------|
D|----------9----9------------------9-----------------------7----------------|
A|----------9----7------------------9-----------------------7----------------|
E|----------7----0------------------7-----------------------5----------------|

"today never happened before"
e|---------------------------------------------------------------------------|
B|---------------------------------------------------------------------------|
G|---------------------------------------------------------------------------|
D|--------------9------------------------------------------------------------|
A|--------------9------------------------------------------------------------|
E|--------------7------------------------------------------------------------|

2nd verse (this is where the guitar gets awesome)
"welcome to the fallout"(and after "welcome to resistance")
e|---------------------------------------------------------------------------|
B|---------------------------------------------------------------------------|
G|---------------------------------------------------------------------------|
D|-------------------9/11-11-11—-9/11-11---11-11-9-9-------------------------|
A|-------------------9/11-11-11—-9/11-11---11-11-9-9-------------------------|
E|-------------------7/9--9--9---7/9--9----9--9--7-7-------------------------|

"the tension is here"               "the tension is here"
e|---------------------------------------------------------------------------|
B|---------------------------------------------------------------------------|
G|---------------------------------------------------------------------------|
D|-------------------2/4-4-4—-2/4-4-4--4-4--6-6--7-7-7-7--7-7-7-7--7-7-7-----|
A|-------------------2/4-4-4—-2/4-4-4--4-4--6-6--7-7-7-7--7-7-7-7--7-7-7-----|
E|-------------------0/2-2-2—-0/2-2-2--2-2--4-4--5-5-5-5--5-5-5-5--5-5-5-----|

"between who you are and who you should be"
e|---------------------------------------------------------------------------|
B|---------------------------------------------------------------------------|
G|---------------------------------------------------------------------------|
D|-------------------9/11-11-11—-9/11-11---11-11-9-9-------------------------|
A|-------------------9/11-11-11—-9/11-11---11-11-9-9-------------------------|
E|-------------------7/9--9--9---7/9--9----9--9--7-7-------------------------|

"between how it is and how it should be"
e|---------------------------------------------------------------------------|
B|---------------------------------------------------------------------------|
G|---------------------------------------------------------------------------|
D|-------------------2/4-4-4—-2/4-4-4--4-4--6-6--7-7-7-7--7-7-7-7--7-7-7-----|
A|-------------------2/4-4-4—-2/4-4-4--4-4--6-6--7-7-7-7--7-7-7-7--7-7-7-----|
E|-------------------0/2-2-2—-0/2-2-2--2-2--4-4--5-5-5-5--5-5-5-5--5-5-5-----|

Play chorus again

Bridge
Play this twice
"maybe redemption has stories to tell"
e|---------------------------------------------------------------------------|
B|---------------------------------------------------------------------------|
G|---------9-9-9-9-9-9-9-9---------------------------------------------------|
D|---------9-9-9-9-9-9-9-9-------7-7-7-7-7-7-7-7-----------------------------|
A|---------7-7-7-7-7-7-7-7-------7-7-7-7-7-7-7-7-----------------------------|
E|-------------------------------5-5-5-5-5-5-5-5-----------------------------|

"where can you run to escape from yourself........................where you gonna go"
e|---------------------------------------------------------------------------|
B|---------------------------------------------------------------------------|
G|---------------------------------------------------------------------------|
D|--------11-11-11-11-11-11-11-11---7-7-7-7-7-7-7-7---------------9----------|
A|--------11-11-11-11-11-11-11-11---7-7-7-7-7-7-7-7---------------9----------|
E|--------9--9--9--9--9--9--9--9----5-5-5-5-5-5-5-5---------------7----------|

Solo                             (a stretch, but you can do it!)
e|---0-0-0-0-0--0-0-0-0-0--0-0-0-0----4-4-4-4-4--4-4-4-4-4--4-4-4-4---------|
B|---5-5-5-5-5--5-5-5-5-5--5-5-5-5----9-9-9-9-9--9-9-9-9-9--9-9-9-9---------|
G|---------------------------------------------------------------------------|
D|---------------------------------------------------------------------------|
A|---------------------------------------------------------------------------|
E|---------------------------------------------------------------------------|

e|-0-0-0-0-0--0-0-0-0-0--0-0-0-0--11-11-11-11-11--11-11-11-11-11--11-11-11-11|
B|-5-5-5-5-5--5-5-5-5-5--5-5-5-5--11-11-11-11-11--11-11-11-11-11--11-11-11-11|
G|---------------------------------------------------------------------------|
D|---------------------------------------------------------------------------|
A|---------------------------------------------------------------------------|
E|---------------------------------------------------------------------------|

Last Chorus
e|---------------------------------------------------------------------------|
B|---------------------------------------------------------------------------|
G|---9-------------------------9------------------------------------------9--|
D|---9-x12--9------7------9-9--9-x12--9------7------11------7------9-9-9--9--|
A|---7------9-x12--7-x22--9-9--7------9-x12--7-x12--11-x12--7-x12--9-9-9--7--|
E|---0------7------5------7-7--0------7------5------9-------5------7-7-7—-0--|

| /  slide up
| \  slide down
| h  hammer-on
| p  pull-off
| ~  vibrato
| +  harmonic
| x  Mute note
===============================================================================
Suggest correction What's this?
You can suggest a correction to this tab. Community and Mods will review your correction and vote to approve or reject it.
comments
print report bad tab
2 comments total.
0 reply
pieman5678 11 wrote on May 30 2006, 05:40 pm

wtf there is no intro

0 reply
guitardude98 79 wrote on September 9 2006, 11:58 pm

it's the elctric the intro is acoustic

I want to post or [tab]
guest
You may want to rate the tab now too:
select rating
Please do not post tabs as comments. Select "correction" instead!