Oops, an error
Loading. Please wait.

Dare You To Move Chords

version 8
version 8
24,484 views 30 this week
no commentswrite comment
1 2 3 4 5
accurate
x 8
add to favorites
launch autoscroll
font size
0
reset
transpose
0
reset
simplify chords
display chords
guitar tuner
Autoscroll
slow
fast
+/-
esc
set tempo
stop
Help us to improve Ultimate-Guitar.com Take our survey!
×
Author
Difficulty
Tabbers playing skills
novice
intermediate ++
-----------------------------------------------------------------------------
                             DARE YOU TO MOVE                SWITCHFOOT     
-----------------------------------------------------------------------------

Tabbed by:hurricaneherman
Tuning:Standard

*Chords listed at end

Here are the chords for Switchfoot's most popular song "(I)Dare You To Move",
from their albums Learning To Breathe, and The Beautiful Letdown.

~INTRO~

C#m7/Ab  E5  E  E5  Asus2 X2

~VERSE~

                      C#m7/Ab  E5  E  E5  Asus2 
Welcome to the planet
                      C#m7/Ab  E5  E  E5  Asus2  
Welcome to existence
           F#m             Asus2
Everyone's here everyone's here
            C#m7/Ab     E5   E   E5    Asus2               
Everybody's watch------ing  you now
          C#m7/Ab  E5  E   E5     Asus2
Everybody waits   for you now
             G                 B5
What happens next what happens next

~CHORUS~ NOTE:Only play (BEFORE) the first time.

              E5                 B5
I dare you to move I dare you to move
              Asus2
I dare you to lift yourself up off the floor
       B5     E5                 B5
I dare you to move I dare you to move
                 Asus2                B5        N.C
Like today never happened today never happened (before)

~INTERLUDE~ Play the intro riff.

                       B5 C#5 B5 C#5 C#5 Asus2
Welcome to the fallout
                       B5 C#5 B5 C#5 C#5 Asus2
Welcome to resistance
               F#5 E5 F#5  E5 F#5    F#5 Ab5 A5     B5
The tension is here     the tension is here
                B5 C#5          B5    C#5  C#5   Asus2
Between who you are and who you could be
                 F#5  E5  F#5       E5 F#5 Ab5 A5   B5
Between how it is and how it should be Yeah

~REPEAT CHORUS~

~BRIDGE~

          E5                    A5
Maybe redemption has stories to tell
          E5                         A5
Maybe forgiveness is right where you fell
              C#5                    A5
Where can you run to escape from yourself
                F#m                B5
Where you gonna go where you gonna go

Salvation is here

~INTERLUDE~

I decided to tab this interlude out, because it's not really chords.

e|-0-0-0---0--0-0-0-0-0-0-0-0-0-0-0-0-0-0-0-0-0-0-0-0-0-0-0-0-0-0-|
B|-7-7-7/9-5--5-5-5-5-5-5-5-5-5-5/10101010101010101010101010101012|
G|----------------------------------------------------------------|
D|----------------------------------------------------------------|
A|----------------------------------------------------------------|
E|----------------------------------------------------------------|
                                 NOTE:These are 10's 12's and 14's.
                                 NOTE:These are whole bends.
e|0-0-0-0-0-0-0-0-0-0-0-0-0-0-0-0-0---0---0---0---0---0---0---0---|
B|1212121212121212121212121212121414b-14b-14b-14b-14b-14b-14b-14b-|
G|----------------------------------------------------------------|
D|----------------------------------------------------------------|
A|----------------------------------------------------------------|
E|----------------------------------------------------------------|

~OUTRO CHORUS~

              E5                 B5
I dare you to move I dare you to move
              Asus2       
I dare you to lift yourself to lift yourself up off the floor
              B5 E5              B5
I dare you to move I dare you to move
                 Asus2                C#m7
Like today never happened today never happened
            Asus2                   B5         E
Today never happened today it never happened before

*chords used
    C#m7/Ab  E5    E   Asus2  F#m    G     B5   C#5   F#5   Ab5    A5   C#m7
e|-----7-----x-----0-----0-----2-----3-----x-----x-----x-----x-----x-----4-|
B|-----5-----x-----0-----0-----2-----0-----x-----x-----x-----x-----x-----5-|
G|-----4-----x-----1-----2-----2-----0-----4-----6-----x-----x-----x-----4-|
D|-----6-----2-----2-----2-----4-----0-----4-----6-----4-----6-----7-----6-|
A|-----4-----2-----2-----0-----4-----2-----2-----4-----4-----6-----7-----4-|
E|-----x-----0-----0-----x-----2-----3-----x-----x-----2-----4-----5-----x-|

=============================================================================
I hope you enjoy this tab, and that it is easy to follow.

Peace, Love, I'm out.
Suggest correction
comments
print report bad tab
guest
You may want to rate the tab now too:
select rating
Wanna post a correction for this tab? Suggest correction