Oops, an error
Loading. Please wait.

Dare You To Move Tab

version 8
version 8
2,959 views 3 this week
3 commentsread comments
1 2 3 4 5
accurate
x 4
add to favorites
launch autoscroll
font size
0
reset
how to read this tab
guitar tuner
Tab Pro tools
  • play this tab
  • loop segment
  • change instrument
  • show fretboard
  • metronome
×
Best way to learn
"Dare You To Move"
Autoscroll
slow
fast
+/-
esc
set tempo
stop
Tuning
D G C F A D
Dare you to move by: Switchfoot

D Tuning- (D-G-C-F-A-d)

h = hammer-on
b = bend string
/ = slide up
\ = slide down 
 ~ = let it ring

Intro: Guitar 1 (acoustic)
e|---0-0-0--000---0-0-0--0000000--0000000000000000---|
B|--121212--000---0-0-0--0000000--0000000000000000---|
G|---x-x-x--xxx--131313--xxxxxxx--9999999999999999---|x2
D|--111111--999----------9999999--7777777777777777---|
A|---------------------------------------------------|
E|---------------------------------------------------|

Verse #1:

e|---0-0-0--000---0-0-0--0000000--0000000000000000---|
B|--121212--000---0-0-0--0000000--0000000000000000---|
G|---x-x-x--xxx--131313--xxxxxxx--9999999999999999---|x2
D|--111111--999----------9999999--7777777777777777---|
A|---------------------------------------------------|
E|---------------------------------------------------|

 ("everyone's here")                     
e|--000000000000000--0000000000000000|  
B|--000000000000000--0000000000000000|
G|--666666666666666--9999999999999999|
D|--444444444444444--7777777777777777|
A|-----------------------------------|
E|-----------------------------------|
 
 ("everybody's watching you")                     
e|---0-0-0--000---0-0-0--0000000--0000000000000000---|
B|--121212--000---0-0-0--0000000--0000000000000000---|
G|---x-x-x--xxx--131313--xxxxxxx--9999999999999999---|x2
D|--111111--999----------9999999--7777777777777777---|
A|---------------------------------------------------|
E|---------------------------------------------------|

 ("what happens next")
e|--000000000000--0000000000000000----|
B|--000000000000--0000000000000000----|
G|--777777777777--8888888888888888----|
D|--555555555555--9999999999999999----|
A|------------------------------------|
E|------------------------------------|


Chorus: Guitar 1
e|--000000000000000--000000000000000--0000000000000000000000000000--00--|
B|--000000000000000--000000000000000--0000000000000000000000000000--00--|
G|--999999999999999--888888888888888--6666666666666666666666666666--88--|x2
D|--999999999999999--999999999999999--7777777777777777777777777777--99--|
A|--777777777777777--999999999999999--7777777777777777777777777777--99--|
E|----------------------------------------------------------------------|


Chorus: Guitar 2 (Electric)
e|------------------------------------------------------------------------|
B|------------------------------------------------------------------------|
G|--9~--------------------------------------------------------------------|
D|--9~----------------9~----------------7~----------------------------9---|
A|--7~----------------9~----------------7~----------------------------9---|
E|--------------------7~----------------5~----------------------------7---|

e|-------------------------------------------------------------|
B|-------------------------------------------------------------|
G|--9~-----------------------------------------------------9---|
D|--9~----------------9~----------------7~-----------------9---|
A|--7~----------------9~----------------7~-----------------7---|
E|--------------------7~----------------5~---------------------|


Repeat intro:

Verse 2: Same as verse one for guitar 1.

Distorted guitar 2:
e|--------------------------------------------------------------------------|
B|--------------------------------------------------------------------------|
G|--------------------------------------------------------------------------|
D|--------------------------------------------------------------------------|
A|-(9/11)-1111-(9/11)-1111-1111-99(x2)-------44-----44-44-66\7777-7777--77--|
E|-(7/9-)-9-9--(7/-9)-9-9--9-9--77-------0h2-22-0h2-22-22-44\5555-5555--55--|

e|--------------------------------------------------------------------------|
B|--------------------------------------------------------------------------|
G|--------------------------------------------------------------------------|
D|--------------------------------------------------------------------------|
A|-(9/11)-1111-(9/11)-1111-1111-99-----------44-----44-44-66\7777-7777--77--|
E|-(7/9-)-9-9--(7/-9)-9-9--9-9--77-------0h2-22-0h2-22-22-44\5555-5555--55--|

REPEAT CHORUS:

Bridge: Guitar 1
e|--0000000000000000--0000000000000000--0000000000000000--0000000000000000--
B|--0000000000000000--0000000000000000--0000000000000000--0000000000000000--
G|--9999999999999999--6666666666666666--9999999999999999--6666666666666666--
D|--9999999999999999--7777777777777777--9999999999999999--7777777777777777--
A|--7777777777777777--7777777777777777--7777777777777777--7777777777777777--
E|--------------------------------------------------------------------------

e --0000000000000000--0000000000000000--00000000000-----0~--|
B --0000000000000000--0000000000000000--00000000000-----0~--|
G --6666666666666666--2222222222222222--22222222222-----4---|
D –-6666666666666666--2222222222222222--44444444444-----4---|
A --4444444444444444--0000000000000000--44444444444---------|
E ----------------------------------------------------------|

Bridge: Guitar 2
e|-----------------------------------------------------------------
B|-----------------------------------------------------------------
G|--999999999999-------------------999999999999--------------------
D|--999999999999----777777777777---999999999999----777777777777----
A|--777777777777----777777777777---777777777777----777777777777----
E|------------------555555555555-------------------555555555555----

e ---------------------------------------------|
B ---------------------------------------------|
G --666666666666-------------------------------|
D --666666666666----777777777777----4~---------|
A --444444444444----777777777777----4~---------|
E ------------------555555555555----2~---------|


Solo:
e|--0000-000000000000---0-0-0-0-0-0-0-0-0-0-0-0-0-0-0-0----
B|--7779-555555555555--10101010101010101010101010101010----
G|---------------------------------------------------------
D|---------------------------------------------------------
A|---------------------------------------------------------
E|---------------------------------------------------------

e -0-0-0-0-0-0-0-0-0-0-0-0---0--0--0--0--0--0--0--0--0--0--0--0--0--0--0--0-|
B 121212121212121212121212--14b14b14b14b14b14b14b14b14b14b14b14b14b14b14b14b|
G --------------------------------------------------------------------------|
D --------------------------------------------------------------------------|
A --------------------------------------------------------------------------|
E --------------------------------------------------------------------------|


Chorus: Guitar 1 – Same as previous chorus


Chorus: Guitar 2 (these are just the chords)
e|--------------------|
B|--------------------|
G|-------4----2----4--|x3
D|--2----4----2----4--|
A|--2----2----0----2--|
E|--0-----------------|

comments
print report bad tab
3 comments total.
0 reply
dare_u_2_move wrote on July 29 2009, 04:49 pm

good try, it sounds ok, but to detune that much makes this version of the song really annoying to play.

0 reply
estevan711 wrote on August 8 2009, 08:58 pm

Sounds close to the song, but it's no where near what Jon really plays. The actual song isn't in D Tuning.
There's a super-good video tutorial on YouTube. Nice try though!

0 reply
(-: UPandUP :-) wrote on August 12 2009, 11:13 pm

hey if this is the way u want to play this song go for it coz as long as it sounds right, ppl u play it to wudnt really care (unless they know how to play both a guitar and that song)

I want to post or [tab]
guest
You may want to rate the tab now too:
select rating
Please do not post tabs as comments. Select "correction" instead!