Oops, an error
Loading. Please wait.

Dark Horses Bass Tab

version 1
version 1

Whole song

Interactive

14,041 views 12 this week
2 commentsread comments
1 2 3 4 5
excellent!
x 16
add to favorites
launch autoscroll
font size
0
reset
guitar tuner
Autoscroll
slow
fast
+/-
esc
set tempo
stop
Help us to improve Ultimate-Guitar.com Take our survey!
×
Author
Difficulty
Tuning
intermediate
D A D G B E
-----------------------------------------------------------------------------
                                DARK HORSES                   SWITCHFOOT
-----------------------------------------------------------------------------

Tabbed by:hurricaneherman
Tuning:Drop D Tuning(D-A-D-G)

This is a really fun song to play on the bass. One of Switchfoot's best songs yet.

~INTRO~

Starts half way through the intro.

G|----------------------------------------------------------------|
D|----------------------------------------------------------------|
A|0-0-0-0-0---------3-3-3-3---3\----------------------------------|X[2]
D|--------------------------------3-3-3-3-3---------0-0-----0-0-0-|

~VERSE~

G|----------------------------------------------------------------|
D|----------------------------------------------------------------|
A|----------------------------------------------------------------|
D|7-7-5h7/10-5h7------------------3-3-0h3h5-3-0-------------------|
        I've made my mistakes I've seen my heart cave in

G|----------------------------------------------------------------|
D|--------------------------------------------------------5-5h7p5-|
A|--------------------------------------------------5-5-----------|
D|7-7-5h7/10-5h7------------------3-3-0h3h5-3-0-------------------|
       I've got my scars I've been to hell and back again

G|----------------------------------------------------------------|
D|--------------------------------------------------------5-5h7p5-|
A|------------------3-3---3-3-3---------------------5-5-----------|X[2]
D|7-7-5h7/10-5h7------------------3-3-0h3h5-3-0-------------------|
         Born for the blue skies we'll survive the rain
    Born for the sunrise we'll survive the pain we're singing

~CHORUS~

G|----------------------------------------------------------------|
D|----------------------------------------------------------------|
A|0-0-0-0-0---------3-3-3-3---3\----------------------------------|X[3]
D|--------------------------------3-3-3-3-3---------0-0-----0-0-0-|
Hey you can't count us out we've been running up against the crowd
           Yeah we are the dark horses we're singing
  Wait it's not over now we've been down but we've never been out

G|----------------------------------------------------------------|
D|----------------------------------------------------------------|
A|0-0-0-0-0---------3-3-3-3---3\----------------------------------|
D|--------------------------------3-3-3-3-3---------0-0-----3-3-5-|
                  Yeah we are the dark horses

~VERSE~

G|----------------------------------------------------------------|
D|----------------------------------------------------------------|
A|----------------------------------------------------------------|
D|7-7-5h7/10-5h7------------------3-3-0h3h5-3-0-------------------|
       We found the way out the city takes everything it can

G|----------------------------------------------------------------|
D|--------------------------------------------------------5-5h7p5-|
A|--------------------------------------------------5-5-----------|
D|7-7-5h7/10-5h7------------------3-3-0h3h5-3-0-------------------|
         But outside the crowds I can feel my lungs again

G|----------------------------------------------------------------|
D|--------------------------------------------------------5-5h7p5-|
A|------------------3-3---3-3-3---------------------5-5-----------|X[2]
D|7-7-5h7/10-5h7------------------3-3-0h3h5-3-0-------------------|
         Born for the blue skies we'll survive the rain
    Born for the sunrise we'll survive the pain we're singing

~CHORUS~

G|----------------------------------------------------------------|
D|----------------------------------------------------------------|
A|0-0-0-0-0---------3-3-3-3---3\----------------------------------|X[3]
D|--------------------------------3-3-3-3-3---------0-0-----0-0-0-|
Hey you can't count us out we've been running up against the crowd
           Yeah we are the dark horses we're singing
  Wait it's not over now we've been down but we've never been out

G|----------------------------------------------------------------|
D|----------------------------------------------------------------|
A|0-0-0-0-0---------3-3-3-3---3\----------------------------------|
D|--------------------------------3-3-3-3-3---------0-0-----3-3-5-|
           Yeah we are the dark horses we're singing

G|----------------------------------------------------------------|    |----|
D|----------------------------------------------------------------|    |----|
A|0---0-0-0---3---3---3---3---------------------------------------|X[2]|0---|
D|----------------------------3-----3-3---3-------0-0-----0-0-0---|    |----|
                       La la la la la la  
                     La la la la la la Yeah

~BRIDGE~

G|----------------------------------------------------------------|
D|----------------------------------------------------------------|
A|----------------------------------------------------------------|
D|7-7-5h7/10-5h7------------------3-3-0h3h5-3-0-------------------|
                   Born for the blue skies

G|----------------------------------------------------------------|
D|----------------------------------------------------------------|
A|----------------------------------------------------------------|
D|7-7-5h7/10-5h7------------------3-3-0h3h5-3-0-------0---0-------|
                   Born for the blue skies

G|----------------------------------------------------------------|
D|-------------------7-7h10\-9------------------------------------|
A|----------------------------------------------------------------|
D|7-7-5h7/10-5h7------------------3-3-0h3h5-3-0---3-3-3-3-5-5-5-5-|
           Born for the sunrise we'll survive the pain

~INTERLUDE~

No bass.

~CHORUS~

G|----------------------------------------------------------------|
D|----------------------------------------------------------------|
A|0-0-0-0-0---------3-3-3-3---3\----------------------------------|X[2]
D|--------------------------------3-3-3-3-3---------0-0-----0-0-0-|
Hey you can't count us out we've been running up against the crowd
            Yeah we are the dark horses we're singing

G|----------------------------------------------------------------|
D|----------------------------------------------3/15----18--------|
A|0-0-0-0-0---------3-3-3-3---3\----------------------------------|
D|--------------------------------3-3-3-3-3-----------------------|
       We don't care what they say we know we'll find a way

G|----------------------------------------------------------------|
D|----------------------------------------------------------------|
A|0-0-0-0-0---------3-3-3-3---3\----------------------------------|
D|--------------------------------3-3-3-3-3---------0-0-----0-3-5-|
           Yeah we are the dark horses we're singing

G|----------------------------------------------------------------|
D|----------------------------------------------------------------|
A|0---0-0-0---3---3---3---3---------------------------------------|
D|----------------------------3-----3-3---3-------0-0-----0-0-0---|
                       La la la la la la

G|----------------------------------------------------------------|
D|----------------------------------------------------------------|
A|0---0-0-0---3---3---3---3---------------------------------------|
D|----------------------------0-----------------------------------|
                       La la la la la la

~OUTRO~

There's no bass but it fades out with Jon singing..

Keep running for the dark horses hope makes the blood change courses
Keep running for the dark horses stand up for the dark horses
Keep running for the dark horses hope makes the blood change courses

=============================================================================
I hope you enjoy this tab and that it was easy to follow If you want to rate,
comment, or correct this tab, those are all welcome.

Peace, Love, I'm out.
Suggest correction
comments
print report bad tab
2 comments total.
0 reply
dirtmaster4 62 wrote on March 29 2014, 02:32 pm

Such a great song!

0 reply
2Spartanz 15 wrote on October 6 2014, 01:15 pm

Love the song. Anyone know its meaning?

guest
You may want to rate the tab now too:
select rating
Please do not post tabs as comments. Select "correction" instead!