Oops, an error
Loading. Please wait.

Dark Horses Tab

version 1
version 1

Whole song

Interactive

29,817 views 1 this week
no commentswrite comment
1 2 3 4 5
accurate
x 4
add to favorites
launch autoscroll
font size
0
reset
how to read this tab
guitar tuner
Tab Pro tools
  • play this tab
  • loop segment
  • change instrument
  • show fretboard
  • metronome
×
Best way to learn
"Dark Horses"
Autoscroll
slow
fast
+/-
esc
set tempo
stop
Contributor
Difficulty
Tuning
novice
D G C F A D
This is one of Switchfoot's brand new songs, they have only played it at sound checks. I 
wait for them to put out a new album. Anyways heres the tab. It's called "Dark Horses"

x=harmonic/palm mute

guitar: 1
E\-----------------------------------------------------------------------\-|
B|-------------------------------------------------------------------------|
G|-------------------------------------------------------------------------|
D|7-7-7-7-x-x-x-x-10-10-10-10-x-x-x-x-3-3-3-3-x-x-x-x-12-12-12-12-x-x-x-x--|
A|7-7-7-7-x-x-x-x-10-10-10-10-x-x-x-x-3-3-3-3-x-x-x-x-12-12-12-12-x-x-x-x--|
D/7-7-7-7-x-x-x-x-10-10-10-10-x-x-x-x-3-3-3-3-x-x-x-x-12-12-12-12-x-x-x-x--|

play this 2 times, then guitar two comes in, keep playing this for guitar one.

guitar 2:
E\-----------------------------------------------\-|
B|10-10-10-10-10-10-10-10-10-10-10-10-10-10-10-10--|
G|7--9--9--7--9--7--7--7--9--9--7--9--9--7--9--9---|
D|7--7--7-7-7-7-7-7-7-7-7-7-7-7-7-7----------------|
A|-------------------------------------------------|
D/-------------------------------------------------|


there is also a kind of lead, its hard to hear
guitar: 3
E\------------------------------\-|
B|-------5-3----------------------|
G|2-4-5---------------------------|
D|------5-------------------------|
A|--------------------------------|
D/--------------------------------|
the verse is the same for both guitars, listen to hear exactly when each one comes in, 
first verse is just drums, then guitars 1 and 2 play the same thing as before.

Chorus:the chorus is just power chords one measure each, listen for the strumming pattern
A-C-F-D

then there is a little piano riff between the chorus and the next verse.
E\12-11---12-----\-|
B|-----15---13-10--|
G|-----------------|
D|-----------------|
A|-----------------|
D/-----------------|

Then it goes back to the verse. its the same verse as before. then the same chorus, then 
goes the the guitar 3 lead. Its all here so just listen and fit it together.
comments
print report bad tab
I want to post or [tab]
guest
You may want to rate the tab now too:
select rating
Please do not post tabs as comments. Select "correction" instead!