Oops, an error
Loading. Please wait.

Dark Horses Bass Tab

version 2
version 2

Whole song

Interactive

1,935 views 1 this week
1 commentread comment
1 2 3 4 5
please rate
add to favorites
launch autoscroll
font size
0
reset
guitar tuner
Tab Pro tools
  • play this tab
  • loop segment
  • change instrument
  • show fretboard
  • metronome
×
Best way to learn
"Dark Horses"
Autoscroll
slow
fast
+/-
esc
set tempo
stop
Contributor
Difficulty
novice
Dark Horses - Switchfoot

Intro:
G-|--------------------------------|
D-|--------------------------------|
A-|---------333-333----------------|  X2
E-|-55555------------11111-000-000-|

G-|------------------------------|
D-|------------------------------|
A-|---------333-333--------------|
E-|-55555------------11111-000-0-|

G-|----------------------------------|
D-|----------------------------------|
A-|----------333-333-----------------|
E-|-55555-------------11111-0--------|

   I've..mistakes...heart cave in...my scars... I've been to hell. Born for...
G-|------------------------------------------------------------------------|
D-|---------------------------------------------------------------------14-|
A-|-5555-3----------5555-3----------5555-3--------5555-3-------12-13-14----|
E-|-----------3h5------------3h5------------3h5-----------3h5--------------|

 ...blue skies...  We'll survive the rain...   Born for the...We'll survive the pain...
G-|-------------------------------------------------------------------------------|
D-|-------------------------------------------------------------------------------|
A-|-5555-3---------5-3-----5555-3---------5-3------5555-3-------5-3----5555-3-----|
E-|-----------3h5------3-------------3h5-------5---------3h5-------3----------3h5-|

    HEY! You...out    We've..crowd...
G-|--------------------------------|
D-|--------------------------------|
A-|---------333-333----------------| X4
E-|-55555------------11111-000-000-|


   The way out...  The city...    outside the...my lungs again...Born for...
G-|------------------------------------------------------------------------|
D-|---------------------------------------------------------------------14-|
A-|-5555-3----------5555-3--------5555-3--------5555-3-------12-13-14------|
E-|-----------3h5------------3h5-----------3h5------------3h5--------------|

   The blue skies...the rain...                 Born...sunrise...We'll survive the pain...
G-|------------------------------------------------------------------------------------|
D-|------------------------------------------------------------------------------------|
A-|-5555-3-------5-3---------5555-3--------5-3-----5555-3---------5-3-----5555-3-------|
E-|---------3h5--------3-------------3h5--------5----------3h5---------3-----------3h5-|

    HEY! You...out    We've...crowd...
G-|--------------------------------|
D-|--------------------------------|
A-|---------333-333----------------|  X4
E-|-55555------------11111-000-000-|

    La    La    la    la    La     la —
G-|-----------------------------------------------------------------|
D-|-----------------------------------12-12-12-12--12-12-12-/14-----|
A-|-12-12-12-12--12-12-12-12-------------------------------------12-| X2
E-|-----------------------------------------------------------------|


Piano Solo Section


...the blue skies...            ...born...blue skies...      ...born... sunrise...
G-|---------------------------------------------------------------------------|
D-|------------------------------------------------------------------------14-|
A-|-5555-3----------5555-3---------5555-3---------5555-3----------12-13-14----|
E-|----------3h5------------3h5-----------3h5------------3h5------------------|

...for the sunrise...  We'll survive the pain...
G-|----------------------------------------------|
D-|----------------------------------------------|
A-|-5555-3----------5-3-----5555-3--------5-3----|
E-|-----------3h5--------3-----------3h5-------5-|

Guitar Solo Section

    HEY!  You...out    We've...crowd...
G-|---------------------------------|
D-|---------------------------------|
A-|----------333-333----------------|  X4
E-|-55555-------------11111-000-000-|

    La    La    la    la    La    la —
G-|-----------------------------------------------------------------|
D-|-----------------------------------12-12-12-12--12-12-12-/14-----|
A-|-12-12-12-12--12-12-12-12-------------------------------------12-| X2
E-|-----------------------------------------------------------------|

    La    La    la    la    La    la —
G-|-----------------------------------------------------------------|
D-|-----------------------------------12-12-12-12--12-12-12-/14--12-|
A-|-12-12-12-12--12-12-12-12----------------------------------------|
E-|-----------------------------------------------------------------|

This is my first tab but I had some help from an experienced guitar teacher.  Enjoy!
comments
We did not receive enough feedback on this tab! Please rate:
print report bad tab
1 2 3 4 5
1 comment total.
+1 reply
morebrothanpro wrote on December 16 2011, 05:16 pm

I dont know who helped you with it, but they are really wrong. None of it is right. look at the V. 1 tab. that one is closer to being right

I want to post or [tab]
guest
You may want to rate the tab now too:
select rating
Please do not post tabs as comments. Select "correction" instead!