Oops, an error
Loading. Please wait.

Dark Horses Tab

version 2
version 2

Whole song

Interactive

39,523 views 21 this week
8 commentsread comments
1 2 3 4 5
excellent!
x 24
add to favorites
launch autoscroll
font size
0
reset
how to read this tab
guitar tuner
Tab Pro tools
  • play this tab
  • loop segment
  • change instrument
  • show fretboard
  • metronome
×
Best way to learn
"Dark Horses"
Autoscroll
slow
fast
+/-
esc
set tempo
stop
Contributor
Tuning
D A D G B E
Switchfoot
Dark Horses
Vice Verses -- 2011

Intro
Guitar 1
E|---------------------------------------------------------------| 
B|---------------------------------------------------------------| \
G|---------------------------------------------------------------|  \ 
D|--7-7-7-7--x-x-x--10-10-10-10--x-x-x--3-3-3-3--x-x-x--0-0-0-0--|   \
A|--7-7-7-7--x-x-x--10-10-10-10--x-x-x--3-3-3-3--x-x-x--0-0-0-0--|    \
D|--7-7-7-7--x-x-x--10-10-10-10--x-x-x--3-3-3-3--x-x-x--0-0-0-0--|     \
                                                                        2x
E|-----------------------------------------------------------|         /
B|-----------------------------------------------------------|        /     
G|-----------------------------------------------------------|       /
D|--7-7-7-7--x-x-x--10-10-10/12\10--3-3-3-3--x-x-x--0-0-0-0--|      /
A|--7-7-7-7--x-x-x--10-10-10/12\10--3-3-3-3--x-x-x--0-0-0-0--|     /
D|--7-7-7-7--x-x-x--10-10-10/12\10--3-3-3-3--x-x-x--0-0-0-0--|  

Guitar 2 - comes in on 3rd chord progression of Intro
E|------------------------------------------------------|
B|--10-10-10-10-10-10-10--10---10-10-10-10-10-10-10-10--|
G|---7hp9hp7hp9hp7--9--9--10^---7hp9hp7hp9hp7--9--9--9--|
D|---7--7--7--7--7--7--7---7----7--7--7--7--7--7--7--7--|
A|------------------------------------------------------|
D|------------------------------------------------------|

Verses 1 
"i've made my mistakes..."  "i got my scares..."   
E|-------12-----------------------12--|
B|----10-----------------------10-----|
G|--9------------------------9--------|
D|------------------------------------|
A|------------------------------------|
D|------------------------------------|

   "born for the blue skies..."
E|-------12------13------12-------13--|
B|----10------10------10-------10-----|
G|--9------10-------9-------10--------|
D|------------------------------------|
A|------------------------------------|
D|------------------------------------|

Chorus 1 
Guitar 1
E|---------------------------------------------------------------| 
B|---------------------------------------------------------------| 
G|---------------------------------------------------------------| - 3x 
D|--7-7-7-7--x-x-x--10-10-10-10--x-x-x--3-3-3-3--x-x-x--0-0-0-0--| 
A|--7-7-7-7--x-x-x--10-10-10-10--x-x-x--3-3-3-3--x-x-x--0-0-0-0--| 
D|--7-7-7-7--x-x-x--10-10-10-10--x-x-x--3-3-3-3--x-x-x--0-0-0-0--| 

E|---------------------------------------------------------------| 
B|---------------------------------------------------------------| 
G|---------------------------------------------------------------|  
D|--7-7-7-7--x-x-x--10-10-10-10--x-x-x--0-0-0-0--x-x-x--3-3-3-3--| 
A|--7-7-7-7--x-x-x--10-10-10-10--x-x-x--0-0-0-0--x-x-x--3-3-3-3--| 
D|--7-7-7-7--x-x-x--10-10-10-10--x-x-x--0-0-0-0--x-x-x--3-3-3-3--| 

Guitar 2 - comes in on 3rd chord progression of Chorus 1
E|------------------------------------------------------|
B|--10-10-10-10-10-10-10--10---10-10-10-10-10-10-10-10--|
G|---7hp9hp7hp9hp7--9--9--10^---7hp9hp7hp9hp7--9--9--9--|
D|---7--7--7--7--7--7--7---7----7--7--7--7--7--7--7--7--|
A|------------------------------------------------------|
D|------------------------------------------------------|

Verse 2
E|-------12-------13------12-------13--|
B|----10-------10------10-------10-----|
G|--9-------10-------9-------10--------| - 2x
D|-------------------------------------|
A|-------------------------------------|
D|-------------------------------------|

Chorus 1 

Bridge - 2x
E|------------------------------------------| 
B|------------------------------------------| 
G|------------------------------------------| 
D|--7-7-7-7--10-10-10-10--3-3-3-3--0-0-0-0--| 
A|--7-7-7-7--10-10-10-10--3-3-3-3--0-0-0-0--| 
D|--7-7-7-7--10-10-10-10--3-3-3-3--0-0-0-0--|

Post-Bridge - no guitar

Interlude  
E|---------------------------------------------------------------| 
B|---------------------------------------------------------------| 
G|---------------------------------------------------------------|   
D|--7-7-7-7--x-x-x--10-10-10-10--x-x-x--3-3-3-3--x-x-x--0-0-0-0--|   
A|--7-7-7-7--x-x-x--10-10-10-10--x-x-x--3-3-3-3--x-x-x--0-0-0-0--|    
D|--7-7-7-7--x-x-x--10-10-10-10--x-x-x--3-3-3-3--x-x-x--0-0-0-0--|     
                                                                  
E|-----------------------------------------------------------|    
B|-----------------------------------------------------------|         
G|-----------------------------------------------------------|    
D|--7-7-7-7--x-x-x--10-10-10/12\10--3-3-3-3--x-x-x--0-0-0-0--|    
A|--7-7-7-7--x-x-x--10-10-10/12\10--3-3-3-3--x-x-x--0-0-0-0--|    
D|--7-7-7-7--x-x-x--10-10-10/12\10--3-3-3-3--x-x-x--0-0-0-0--|  

Chorus 2 
Guitar 1
E|---------------------------------------------------------------| 
B|---------------------------------------------------------------| 
G|---------------------------------------------------------------| - 2x 
D|--7-7-7-7--x-x-x--10-10-10-10--x-x-x--3-3-3-3--x-x-x--0-0-0-0--| 
A|--7-7-7-7--x-x-x--10-10-10-10--x-x-x--3-3-3-3--x-x-x--0-0-0-0--| 
D|--7-7-7-7--x-x-x--10-10-10-10--x-x-x--3-3-3-3--x-x-x--0-0-0-0--| 
                                                         
                                           they do some weird effect here 
E|------------------------------------------------------|--------| 
B|------------------------------------------------------|--------| 
G|------------------------------------------------------|--------|  
D|--7-7-7-7--x-x-x--10-10-10-10--x-x-x--3-3-3-3--x-x-x--2-5-9-4--| 
A|--7-7-7-7--x-x-x--10-10-10-10--x-x-x--3-3-3-3--x-x-x--6-1-8-3--| 
D|--7-7-7-7--x-x-x--10-10-10-10--x-x-x--3-3-3-3--x-x-x--8-3-7-0--| 

E|---------------------------------------------------------------| 
B|---------------------------------------------------------------| 
G|---------------------------------------------------------------|  
D|--7-7-7-7--x-x-x--10-10-10-10--x-x-x--0-0-0-0--x-x-x--3-3-3-3--| 
A|--7-7-7-7--x-x-x--10-10-10-10--x-x-x--0-0-0-0--x-x-x--3-3-3-3--| 
D|--7-7-7-7--x-x-x--10-10-10-10--x-x-x--0-0-0-0--x-x-x--3-3-3-3--| 

Guitar 2 
E|------------------------------------------------------|
B|--10-10-10-10-10-10-10--10---10-10-10-10-10-10-10-10--|
G|---7hp9hp7hp9hp7--9--9--10^---7hp9hp7hp9hp7--9--9--9--|
D|---7--7--7--7--7--7--7---7----7--7--7--7--7--7--7--7--|
A|------------------------------------------------------|
D|------------------------------------------------------|

Outro
Guitar 1
E|------------------------------------------| 
B|------------------------------------------| 
G|------------------------------------------| 
D|--7-7-7-7--10-10-10-10--3-3-3-3--0-0-0-0--| 
A|--7-7-7-7--10-10-10-10--3-3-3-3--0-0-0-0--| 
D|--7-7-7-7--10-10-10-10--3-3-3-3--0-0-0-0--|

E|---------------------------| 
B|---------------------------| 
G|---------------------------| 
D|--7-7-7-7--10-10-10-10--0--| 
A|--7-7-7-7--10-10-10-10--0--| 
D|--7-7-7-7--10-10-10-10--0--|

Guitar 2 - listen closely for this part
E|------------------------------------------|
B|--10-10-10-10-10-10-10/13\12\10-10-10-10--|
G|------------------------------------------| 
D|------------------------------------------|
A|------------------------------------------|
D|------------------------------------------|
comments
print report bad tab
8 comments total. Showing first comments.
+1 reply
hurricaneherman wrote on July 21 2011, 01:58 pm

Where did you tab this from? The album's not coming out for two more months.

0 reply
TIMAY21 wrote on July 21 2011, 02:16 pm

They released the song on their website yesterday.

0 reply
hurricaneherman wrote on July 21 2011, 06:50 pm

Cool.

I want to post or [tab]
guest
You may want to rate the tab now too:
select rating
Please do not post tabs as comments. Select "correction" instead!