Oops, an error
Loading. Please wait.

Daylight To Break Tab

version 4
version 4

Whole song

555 views 1 this week
no commentswrite comment
1 2 3 4 5
x 3
add to favorites
launch autoscroll
font size
0
reset
how to read this tab
guitar tuner
Autoscroll
slow
fast
+/-
esc
set tempo
stop
Help us to improve Ultimate-Guitar.com Take our survey!
×
Author
Tuning
Tabbers playing skills
D A D G B E
intermediate
Tuning: Drop D

| /   slide up
| .   palm-mute

All guitars tuned DAdGBE
 {Gtr 1 - acoustic
 {Gtr 2 - distorted electric

Extra catchy Switchfoot song that no one knows about! They have it posted on their fan 
site for free, since it's not released on iTunes for sale. You can get it for free at 
"http://www.landofbrokenhearts.org/mediasongs.php" :o

[Intro Riff]
  {Gtr 1
E|---------------------------------------------------------------|
B|---------------------------------------------------------------|
G|---------------------------------------------------------------|
d|------7-----------------------------7--------------------------|
A|--7/9---9--9-0-0-7--7--5--5-5-7-7/9---9--9-0-0-7--7--5--5-5-7--|
D|--7/9---9--9-0-0-5--5--5--5-5-5-7/9---9--9-0-0-5--5--5--5-5-5--|
    ...........................................................

[Verses]
  {Gtr 1
E|---------------------------------------------------------|
B|---------------------------------------------------------|
G|---------------------------------------------------------|
d|--99999995--5555555-00000005--5555555-99999995--5555555--|
A|--99999997--7777777-00000007--7777777-99999997--7777777--|
D|--99999995--5555555-00000005--5555555-99999995--5555555--|
    .....................................................

  {Gtr 1
E|---------------------------------|
B|---------------------------------|
G|---------------------------------|
d|------7--------------------------|
A|--7/9---9--9-0-0-7--7--5--5-5-7--|
D|--7/9---9--9-0-0-5--5--5--5-5-5--|
    .............................

[Chorus 1]
Waiting for daylight to break up this room, waiting for daylight to break
  {Gtr 2
E|--------------------------------------------------------------------|
B|--------------------------------------------------------------------|
G|--------------------------------------------------------------------|
d|--999999--222222--555555--000000----999999--222222--555555--777777--|
A|--999999--222222--555555--000000----999999--222222--555555--777777--|
D|--999999--222222--555555--000000----999999--222222--555555--777777--|

I've been alone in the dark I've been dreaming and
  {Gtr 2
E|----------------------------------|
B|----------------------------------|
G|----------------------------------|
d|--999999--222222--444444--222222--|
A|--999999--222222--444444--222222--|
D|--999999--222222--444444--222222--|

Waking up without you, I've been waking up without you for too long
  {Gtr 2
E|---------------------------------|
B|---------------------------------|
G|---------------------------------|
d|--5555555--7777777--5555555-/-8--|
A|--5555555--7777777--5555555-/-8--|
D|--5555555--7777777--5555555-/-8--|

[Post-Chorus Riff]
  {Gtr 2
E|-----------------------------------------------------------|
B|-----------------------------------------------------------|
G|-----------------------------------------------------------|
d|----7---------------------------7--------------------------|
A|--9---9--9-0-0-7--7--5--5-5-7-9---9--9-0-0-7--7--5--5-5-7--|
D|--9---9--9-0-0-5--5--5--5-5-5-9---9--9-0-0-5--5--5--5-5-5--|

[Chorus 2/Bridge]
Waiting for daylight to break up this room, waiting for daylight to break
  {Gtr 2
E|--------------------------------------------------------------------|
B|--------------------------------------------------------------------|
G|--------------------------------------------------------------------|
d|--999999--222222--555555--000000----999999--222222--555555--777777--|
A|--999999--222222--555555--000000----999999--222222--555555--777777--|
D|--999999--222222--555555--000000----999999--222222--555555--777777--|

I've been alone in the dark I've been dreaming and
  {Gtr 2
E|----------------------------------|
B|----------------------------------|
G|----------------------------------|
d|--999999--222222--444444--222222--|
A|--999999--222222--444444--222222--|
D|--999999--222222--444444--222222--|

The day, when dreamers are awake
  {Gtr 2
E|----------------------------------|
B|----------------------------------|
G|----------------------------------|
d|--555555--777777--555555--777777--|
A|--555555--777777--555555--777777--|
D|--555555--777777--555555--777777--|

The sun hits my eyes...
  {Gtr 2
E|----------------------------------|
B|----------------------------------|
G|----------------------------------|
d|--000000--555555--777777--999999--|
A|--000000--555555--777777--999999--|
D|--000000--555555--777777--999999--|

I've been waking up without you...
  {Gtr 2
E|----------------------------------|
B|----------------------------------|
G|----------------------------------|
d|--555555--777777--555555--888888--|
A|--555555--777777--555555--888888--|
D|--555555--777777--555555--888888--|


Repeat the Chorus 2/Bridge part for the Chorus 3/Outro part, and end with the 
Post-Chorus Riff. Hope it's a blessing. ;)
Suggest correction
Give kudos to tab author, rate the tab!
1 2 3 4 5
comments
print report bad tab
guest
You may want to rate the tab now too:
select rating
Wanna post a correction for this tab? Suggest correction