Oops, an error
Loading. Please wait.

Dirty Second Hands Tab

version 1
version 1

Whole song

6,889 views 9 this week
6 commentsread comments
1 2 3 4 5
accurate
x 4
add to favorites
launch autoscroll
font size
0
reset
how to read this tab
guitar tuner
Tab Pro tools
  • play this tab
  • loop segment
  • change instrument
  • show fretboard
  • metronome
×
Best way to learn
"Dirty Second Hands"
Autoscroll
slow
fast
+/-
esc
set tempo
stop
Contributor
Difficulty
Tuning
intermediate
D A D G B E
                           Dirty Second Hands
			     by Switchfoot
			   tabbed by Nate H.
Intro: Guitar 1 (acoustic)


e|---------------------------------------------------------------------------|
B|-------------------2~----------------2~-----------------2------------------|
G|-------------------3~----------------3~-----------------3------------------|
D|-0--3--0-----0-----0~-0--3--0-----0--0~--0--3--0-----0--0------------------|
A|----------2--------0~--------2-------0~-----------2-----0------------------|
D|----------------0--0~--------------0-0~---------------0--0-----------------|
-----------------------------------------------------------------------------|

Verse 1: Acoustic (Played thru TWO times)
Note: I'm not exactly sure what the strumming pattern is here
because the rythm is kind of weird, but the chords are right.

e|-----------------------------------------------------------------|
B|-----------------------------------------------------------------|
G|-------7-----------9-------10------------12--------11-----------9|
D|-0--0--x--0--0--0--x--0--0--x---0--0--0--x---0--0--x---0--0--0--x|
A|-0--0--5--0--0--0--7--0--0--8---0--0--0--10--0--0--9---0--0--0--7|
D|-0--0-----0--0--0-----0--0------0--0--0------0--0------0--0--0---|

e|---------------------------------------------------------------|
B|---------------------------------------------------------------|
G|-------10-----------9--------7-----------9--------10-----------|
D|-0--0--x---0--0--0--x--0--0--x--0--0--0--x--0--0--x---0--0--0--|
A|-0--0--8---0--0--0--7--0--0--5--0--0--0--7--0--0--8---0--0--0--|
D|-0--0------0--0--0-----0--0-----0--0--0-----0--0------0--0--0--|

--------------------------------------------------------------------------------------

Chorus: Guitar 2 (Electric w/ distortion)

e|----------------------------------------------------------------|
B|----------------------------------------------------------------|
G|-10-10-10\-4--4--4--10-10-10\-4--4--4--5--5--5--6--6--6---------|
D|-10-10-10\-4--4--4--10-10-10\-4--4--4--5--5--5--6--6--6---------|
A|-8--8--8\--2--2--2--8--8--8\--2--2--2--3--3--3--4--4--4--x2-----|
D|----------------------------------------------------------------|


After each of the two times you play the chorus riff, the chorus
riff guitar 1 plays a slight variation the intro riff.


e|------------------------------------------------------------------|
B|-----------------2~-------------------2~--------------------------|
G|-----------------3~-------------------3~--------------------------|
D|-----4--0-----0--0~--0--4--0-----0----0~--------------------------|
A|-----------4-----0~-----------4-------0~---x2 (1 after each riff)-|
D|--0------------0-0~-----------------0-0~--------------------------|

In between the chorus and verse two, do a slow bend on the 4 string
10th fret.
---------------------------------------------------------------------------------------

Verse 2 and chorus two are exactly the same except the verse is played with a distorted electric.
-------------------------------------------------------------------------------------------------

Interlude: Acoustic guitar, and electric guitar (clean)

Acoustic guitar plays intro riff thru most of the rest of the song

electric guitar plays...

e|-----------------------------------------------------|
B|--2--2--2--2-----------------------------------------|
G|--3--3--5--4-----------------------------------------|
D|-----------------------------------------------------|
A|-----------------------------------------------------|
D|-----------------------------------------------------|

...for the rest of the song.


The only time the above isnt played in the entire song after the 2nd chorus is when the chorus riff is
played a few times near the end.

I hope thats clear enough for people to read, I'm pretty sure its basically what they 
sorry its not neater.
comments
print report bad tab
6 comments total. Showing first comments.
0 reply
I-Z wrote on October 25 2006, 12:44 pm

its a great tab
just the intro needs to be fixed if you need help fixing it just tell me

+1 reply
I-Z wrote on October 29 2006, 01:48 pm

this is what you put

e|------------------------------------------------------------------|
B|-------------------2~----------------2~-----------------2---------|
G|-------------------3~----------------3~-----------------3---------|
D|-0--3--0-----0-----0~-0--3--0-----0--0~--0--3--0-----0--0---------|
A|----------2--------0~--------2-------0~-----------2-----0---------|
D|----------------0--0~--------------0-0~---------------0--0--------|
--------------------------------------------------------------------|

but i'm pretty sure it goes like this
e|------------------------------------------------------------------|
B|-------------------3~----------------3~-----------------3---------|
G|-------------------2~----------------2~-----------------2---------|
D|-0--3--0-----0-----0~-0--3--0-----0--0~--0--3--0-----0--0---------|
A|----------3--------0~--------3-------0~-----------3-----0---------|
D|----------------0--0~--------------0-0~---------------0--0--------|
--------------------------------------------------------------------|


thats what i think

0 reply
FlyF1402 wrote on October 29 2006, 02:32 pm

O yeah you're right. Thats what I'm playing I just wrote it wrong.

I want to post or [tab]
guest
You may want to rate the tab now too:
select rating
Please do not post tabs as comments. Select "correction" instead!