Oops, an error
Loading. Please wait.

Enough To Let Me Go intro tab

version 2
version 2

Intro

Whole song

Interactive

7,327 views 1 this week
2 commentsread comments
1 2 3 4 5
x 8
add to favorites
×
Save as Personal and add changes to this tab that will be seen only by you. Learn more ›
×
You can save this tab as Personal to edit and correct it or add notes. All changes will be seen only by you. Learn more »
launch autoscroll
font size
0
reset
how to read this tab
guitar tuner
edit
Autoscroll
slow
fast
+/-
esc
set tempo
stop
Author
Difficulty
Switchfoot
Album: Hello Hurricane
year:2009

Awesome song, wanted to figure it out for my sister :P
Intro to 'Enough to let me go'
Sounds right, worked it out in five minutes. Feel free to comment or rate :)


e---------------------------------------|
B---------------------------------------|
G----6-3------------6-3-----------------|
D--4-----6-4------4-----6-4------6s8-6--|
A-6----------2--6-------------2---------|
E---------------------------------------|

            
            
Suggest correction
Creating personal tab
Creating personal tab
You can edit any tab online and save it as your Personal.

You can edit, replace or remove any tab part or add personal notes – all changes will be seen only by you.

Personal tabs can be accessed anytime from any device, even offline.
Learn more »
comments
print report bad tab
2 comments total.
0 reply
dsuperboy73 10 Dec 18, 2009 10:29 AM

here's the way I found it easiest:

e|----------------------------------------------------------|
B|----------------------------------------------------------|
G|-----6---------------6------------------------------------|
D|-------8-6-------------8-6-----8-6------------------------|
A|-6-9-------9-----6-9-------9------------------------------|
E|-------------7---------------7----------------------------|

0 reply
mickykeats 392 Feb 07, 2010 04:29 PM

thanks dsuperboy73
but what I have posted basically how jon plays it :)

guest
You may want to rate the tab now too:
select rating
Wanna post a correction for this tab? Suggest correction