Oops, an error
Loading. Please wait.

Float bass

version 1
version 1

Whole song

2,884 views 39 this week
1 commentread comment
1 2 3 4 5
x 9
add to favorites
×
Save as Personal and add changes to this tab that will be seen only by you. Learn more ›
×
You can save this tab as Personal to edit and correct it or add notes. All changes will be seen only by you. Learn more »
launch autoscroll
font size
0
reset
guitar tuner
edit
Autoscroll
slow
fast
+/-
esc
set tempo
stop
Artist:- SWITCHFOOT
Album:- WHERE THE LIGHT SHINES THROUGH (2016)
Song:- FLOAT



Verse1: [00:00 - 01:03]

[00:00 - 00:11]  (No Bass)


[00:12 - 00:28] (Song Starts,Bass Enters)
G|--------------------------|
D|--------------------------|
A|-5-5--7-8-------5-8-10/12~|
E|----------5-6-6-----------|

G|---------------------------|
D|------------------5-3-3----|
A|-----------------5-----5-3-|
E|-6-6--8-10\2-3-3-----------|


[00:29 - 00:35]
G|--------------------------|
D|--------------------------|
A|-5-5--7-8-------5-8-10/12~|
E|----------5-6-6-----------|

G|-----------------------------|
D|-----------------5-5-3-3-----|
A|-------------------------5-3-|
E|-6-6--8-10\2-3-3-------------|


[00:36 - 00:42]
G|--------------------------|
D|--------------------------|
A|-5-5--7-8-------5-8-10/12~|
E|----------5-6-6-----------|

G|---------------------------|
D|---------------------------|
A|-------------------------3-|
E|-6-6--8-10\2-3-3-1-3-1-3---|


[00:43 - 00:49]
G|--------------------------|
D|--------------------------|
A|-5-5--7-8-------5-8-10/12~|
E|----------5-6-6-----------|

G|-----------------------------|
D|-----------------5-5-3-3-----|
A|-------------------------5-3-|
E|-6-6--8-10\2-3-3-------------|


[00:50 - 00:56]
G|--------------------------|
D|--------------------------|
A|-5-5--7-8-------5-8-10/12~|
E|----------5-6-6-----------|

G|---------------------------|
D|------------------5-3-3----|
A|-----------------5-----5-3-|
E|-6-6--8-10\2-3-3-----------|


[00:57 - 01:03]
G|--------------------------|
D|--------------------------|
A|-5-5--7-8-------5-8-10/12~|
E|----------5-6-6-----------|

G|---------------------------|
D|------------------5-3-3----|
A|-----------------5-----5-3-|
E|-6-6--8-10\2-3-3-----------|



Chorus: [1:04 - 1:30]

[01:04 - 01:09]  (No Bass)
G|-----------------------------------------------|
D|-----------------------------------------------|
A|-----------------------------------------------|
E|-----------------------------------------------|

[01:10 - 01:16]
G|-------------------------------------|
D|-------------------------------------|
A|-------------------------------------|
E|-------------------------------------|


[01:17 - 01:30]  (Bass Enters)
G|-----------------------------------------------|
D|-----------------------------------------------|
A|-3-3-4-5-5-5-5-----------8-8-8-8---------------|
E|----------------6-6-6-6-----------7-7-7--7-7-8-|

G|-------------------------------------|
D|-------------------------------------|
A|-5-5-5-5--------------------2--------|
E|----------6-6-6-6--1-----------------|



Verse2: [1:31 - 1:52]

[01:31 - 01:38]
G|-------------------------------|
D|--------------------------5-7~-|
A|-3-3-4-5-5--7-8-------5-8------|
E|----------------5-6-6----------|

G|---------------------------|
D|------------------5-3-3----|
A|-----------------5-----5-3-|
E|-6-6--8-10\2-3-3-----------|
 

[01:39 - 01:45]
G|-------------------------------|
D|--------------------------5-7~-|
A|-3-3-4-5-5--7-8-------5-8------|
E|----------------5-6-6----------|

G|---------------------------|
D|------------------5-3-3----|
A|-----------------5-----5-3-|
E|-6-6--8-10\2-3-3-----------|


[01:46 - 01:52]
G|-------------------------------|
D|--------------------------5-7~-|
A|-3-3-4-5-5--7-8-------5-8------|
E|----------------5-6-6----------|

G|----------------------------|
D|----------------------------|
A|----------------------------|
E|-6-6--8-10\2-3\-x-x-x-x-x-x-|



Chorus: [1:52 - 2:20]

[01:52 - 01:59]
G|---------------------------------------|
D|---------------------------------------|
A|-5-5-5-5----------8-8-8-8--------------|
E|---------6-6-6-6----------7-7-7--7-7-8-|


[02:00 - 02:05]
G|-------------------------------------------|
D|-------------------------------------------|
A|-5-5-5-5---------8h10-8-8-8-8--------------|
E|---------6-6-6-6--------------7-7-7--7-7-8-|


[02:06 - 02:12]
G|---------------------------------------|
D|---------------------------------------|
A|-5-5-5-5----------8-8-8-8--------------|
E|---------6-6-6-6----------7-7-7--7-7-8-|


[02:12 - 02:20]
G|-------------------------------------|
D|-------------------------------------|
A|-5-5-5-5--------------------2--------|
E|----------6-6-6-6--1-----------------|



Bridge: [2:21 - 3:02]

[02:21 - 02:32] (No Bass)
G|------------------|------------|
D|------------------|------------|
A|------------------|------------|
E|------------------|------------| 

G|------------------|------------|
D|------------------|------------|
A|------------------|------------|
E|------------------|------------| 


[02:33 - 02:47]
G|------------------|------------|
D|------------------|------------|
A|--------5-/--17---|-5-/--17----|
E|-2/10\2--------10-|---------10-|

G|------------|------------|
D|------------|------------|
A|--5-/--17---|-5-/--17----|
E|---------10-|---------10-|


[02:48 - 03:02] 
G|-----------------------------------------------|
D|-----------------------------------------------|
A|-3-3-4-5-5-5-5-----------8-8-8-8---------------|
E|----------------6-6-6-6-----------7-7-7--7-7-8-|

G|--------------------------------------|
D|--------------------------------------|
A|-5-5-5-5---------8h10-8-8-8-8---------|
E|---------6-6-6-6--------------7-7-7-7-|



Chorus:

[03:03 - 03:09]
G|---------------------------------------|
D|---------------------------------------|
A|-5-5-5-5----------8-8-8-8--------------|
E|---------6-6-6-6----------7-7-7--7-7-8-|


[03:10 - 03:16]
G|-------------------------------------------|
D|-------------------------------------------|
A|-5-5-5-5---------8h10-8-8-8-8--------------|
E|---------6-6-6-6--------------7-7-7--7-7-8-|


[03:17 - 03:23]
G|---------------------------------------|
D|---------------------------------------|
A|-5-5-5-5----------8-8-8-8--------------|
E|---------6-6-6-6----------7-7-7--7-7-8-| 


[03:24 - 03:30]
G|---------------------------------------|
D|---------------------------------------|
A|-5-5-5-5----------8-8-8-8--------------|
E|---------6-6-6-6----------7-7-7--7-7-8-|


[03:31 - 03:37]
G|---------------------------------------|
D|---------------------------------------|
A|-5-5-5-5----------8-8-8-8--------------|
E|---------6-6-6-6----------7-7-7--7-7-8-|


[03:38 - 03:44]
G|-------------------------------------------|
D|-------------------------------------------|
A|-5-5-5-5---------8h10-8-8-8-8--------------|
E|---------6-6-6-6--------------7-7-7--7-7-8-|


[03:45 - 03:51]
G|---------------------------------------|
D|---------------------------------------|
A|-5-5-5-5----------8-8-8-8--------------|
E|---------6-6-6-6----------7-7-7--7-7-8-|


[03:52 - 03:57]
G|-------------------------------------|
D|-------------------------------------|
A|-5-5-5-5--------------------2--------|
E|----------6-6-6-6--1-----------------|


[03:58 - 04:12]  (No Bass)
G|--------------------------|
D|--------------------------|
A|--------------------------|
E|--------------------------|

                 END


Please Listen To The Song Very Carefully To Catch Up The Tab.. 

Hope It Helps

God Bless

            
            
Suggest correction
Creating personal tab
Creating personal tab
You can edit any tab online and save it as your Personal.

You can edit, replace or remove any tab part or add personal notes – all changes will be seen only by you.

Personal tabs can be accessed anytime from any device, even offline.
Learn more »
comments
print report bad tab
1 comment total.
0 reply
Mr.Handsome 47 Oct 19, 2016 03:31 AM

Awesome Tab... so perfect.. why is this tab not high rated.. common guys This tab is Worth The 5star ★★★★★..

Awesome job by the tabber

guest
You may want to rate the tab now too:
select rating
Wanna post a correction for this tab? Suggest correction