Oops, an error
Loading. Please wait.

Holy Water Tab

10 views 1 this week
no commentswrite comment
1 2 3 4 5
3 more votes to show rating
add to favorites
launch autoscroll
font size
0
reset
how to read this tab
guitar tuner
Autoscroll
slow
fast
+/-
esc
set tempo
stop
Help us to improve Ultimate-Guitar.com Take our survey!
×
Author
Difficulty
novice
About this tab version
There are no tabs for this song, it was originally thought to be played on a mandolin. Was this info helpful? Yes No
Switchfoot
Holy Water
Tabbed by wymankid


[Intro]
e|----10-12p10--------9-10p9-----|
B|-12----------12--10--------10--|
G|-------------------------------|x8
D|-------------------------------|
A|-------------------------------|
E|-------------------------------|


[Verse]
e|----10-12p10--------9-10p9-----|
B|-12----------12--10--------10--|
G|-------------------------------|
D|-------------------------------|
A|-------------------------------|
E|-------------------------------|


Chorus, Guitar 1
e|-------------------------------|
B|-------------------------------|
G|-7---------7-------------------|
D|-7-7--2----7-7--2--------------|
A|-5-7--2----5-7--2--------------|
E|---5--0------5--0--------------|


Guitar 2 (after guitar 1 ends)
e|----10-12p10--------9-10p9-----|
B|-12----------12--10--------10--|
G|-------------------------------|x2
D|-------------------------------|
A|-------------------------------|
E|-------------------------------|

-Verse two is bass only-

-Repeat Chorus-

[Bridge]            x3
e|------------------|------------|
B|------------------|------------|
G|------------------|------------|
D|----9--2-7-9-5--2-|-7-7--2-----|
A|-2--7--0-5-7-3--0-|-3-3--0-----|
E|-0----------------|------------|



[Solo], Guitar 1
e|----10-12p10--------9-10p9-----|
B|-12----------12--10--------10--|
G|-------------------------------|x4
D|-------------------------------|
A|-------------------------------|
E|-------------------------------|


Solo, Guitar 2
e|-----------------------------------7-7--7------------------|
B|-12s0--12-12-10-8------10----8-10---------10-8-------------|
G|------------------7-9------9-------------------9-9-9-9-----|
D|-----------------------------------------------------------|
A|-----------------------------------------------------------|
E|-----------------------------------------------------------|


-Bass only-


e|----10-12p10--------9-10p9-----|
B|-12----------12--10--------10--|
G|-------------------------------|x4
D|-------------------------------|
A|-------------------------------|
E|-------------------------------|

-Repeat Chorus-

[Outro]
e|----10-12p10--------9-10p9-----|
B|-12----------12--10--------10--|
G|-------------------------------|x8
D|-------------------------------|
A|-------------------------------|
E|-------------------------------|


*************************************

-Legend-
p = pull off
x3 = play thrice

*************************************
Suggest correction
Give kudos to tab author, rate the tab!
1 2 3 4 5
comments
print report bad tab
guest
You may want to rate the tab now too:
select rating
Wanna post a correction for this tab? Suggest correction