Oops, an error
Loading. Please wait.

I Turn Everything Over tab

version 1
version 1

Whole song

Interactive

1,845 views 1 this week
1 commentread comment
1 2 3 4 5
1 last vote to show rating
add to favorites
×
Save as Personal and add changes to this tab that will be seen only by you. Learn more ›
×
You can save this tab as Personal to edit and correct it or add notes. All changes will be seen only by you. Learn more »
launch autoscroll
font size
0
reset
how to read this tab
guitar tuner
edit
Autoscroll
slow
fast
+/-
esc
set tempo
stop
I'm not gonna take any credit for this tab, but since the only version here in Ultimate 
is a Power Tab and this song rocks, I'll just put here what I saw from another site.

Song: I Turn Everything Over
CD: New Way to be Human
Written by: Jon Foreman
Tabbed by: Nathan N.
Tuning: EADGBE

Intro
-----------------------------------------------|
-----------------------------------------------|
99-11-13-9-99-9-11br-99-11-13-9-999-1111-------|
xx--x--x--x-xx-x--x---xx--x--x--x-xxx--x-x-----|
77--9-11-7-77-7--9br-77--9-11-7-777--9-9-------|
-----------------------------------------------|

Verse
---7-----7----4----7-----7--------------|
---5-----4----2----5-----5--------------|
----------------------------------------|
----------------------------------------|
7-----6-----4----0----------------------|
----------------------7-----------------|

Pre-Chorus
55-7-44-5-------------------------------|
22-4-22-2-------------------------------|
----------------------------------------|
----------------------------------------|
----------------------------------------|
----------------------------------------|

Chorus
---------777------777----444-----777-----444--------------------|
---------555------555----222-----555-----222--------------------|
9999-----------------------------------------9999---------------|
9999-----------------------------------------9999-777-99--------|
7777-7-------5/7------0------5/7------0------7777-777-99--------|
--------------------------------------------------555-77--------|

Sorry! No bridge CD skips there but you should add this tab because I have the
whole song but the bridge and it's in tab.

            
            
Suggest correction
Creating personal tab
Creating personal tab
You can edit any tab online and save it as your Personal.

You can edit, replace or remove any tab part or add personal notes – all changes will be seen only by you.

Personal tabs can be accessed anytime from any device, even offline.
Learn more »
Give kudos to tab author, rate the tab!
1 2 3 4 5
comments
print report bad tab
1 comment total.
0 reply
l_ampao_l 101 Mar 30, 2006 11:36 PM

By the way, it sounds good with distortion. :D

And uh, I was the one who submitted this tab

franzrebs12492@yahoo.com

guest
Wanna post a correction for this tab? Suggest correction