Oops, an error
Loading. Please wait.

I Wont Let You Go tab

version 1
version 1

Whole song

4,393 views 84 this week
no commentswrite comment
1 2 3 4 5
x 13
add to favorites
×
Save as Personal and add changes to this tab that will be seen only by you. Learn more ›
×
You can save this tab as Personal to edit and correct it or add notes. All changes will be seen only by you. Learn more »
launch autoscroll
font size
0
reset
how to read this tab
guitar tuner
edit
Autoscroll
slow
fast
+/-
esc
set tempo
stop
Author
Difficulty
One of the songs off of Switchfoot's new album, Where the Light Shines Through.

[Intro]

e|--------------------------------------------------------------|
B|---9---9---9---9---9---9---9---9\7---7---7---7/10--10--10--10-|
G|--------------------------------------------------------------|
D|--------------------------------------------------------------| X2
A|-7---7---7---7---7---7---7---7\6---6---6---6/9---9---9---9----|
E|--------------------------------------------------------------|


[Verse]

e|---------------------------------------------------------------|
B|---9---9---9---9---9---9---9---9\7---7---7---7---7---7---7---7\|
G|---------------------------------------------------------------|
D|---------------------------------------------------------------|
A|-7---7---7---7---7---7---7---7\6---6---6---6---6---6---6---6\--|
E|---------------------------------------------------------------|
                                                                   X2
e|---------------------------------------------------------------|
B|---5---5---5---5\4---4---4---4\2---2---2---2---2---2---2---2---|
G|---------------------------------------------------------------|
D|---------------------------------------------------------------|
A|-4---4---4---4\2---2---2---2\0---0---0---0---0---0---0---0-----|
E|---------------------------------------------------------------|


[Prechorus]

e|---------------------------------------------------------------|
B|---2---2---2---2/9---9---9---9\4---4---4---4---4---4---4---4---|
G|---------------------------------------------------------------|
D|---------------------------------------------------------------| X2
A|-0---0---0---0/7---7---7---7\2---2---2---2---2---2---2---2-----|
E|---------------------------------------------------------------|


[Chorus]

e|----------------------------------------------------------------|
B|---9---9---9---9---9---9---9---9/12--12--12--12--12--12--12--12\|
G|----------------------------------------------------------------|
D|----------------------------------------------------------------|
A|-7---7---7---7---7---7---7---7/11--11--11--11--11--11--11--11\--|
E|----------------------------------------------------------------|
                                                                    X2
e|----------------------------------------------------------------|
B|---5---5---5---5\4---4---4---4\2---2---2---2---2---2---2---2----|
G|----------------------------------------------------------------|
D|----------------------------------------------------------------|
A|-4---4---4---4\2---2---2---2\0---0---0---0---0---0---0---0------|
E|----------------------------------------------------------------|


[Instrumental]

e|--------------------------------------------------------------|
B|---9---9---9---9---9---9---9---9\7---7---7---7/10--10--10--10-|
G|--------------------------------------------------------------|
D|--------------------------------------------------------------| X2
A|-7---7---7---7---7---7---7---7\6---6---6---6/9---9---9---9----|
E|--------------------------------------------------------------|


[Verse]

e|---------------------------------------------------------------|
B|---9---9---9---9---9---9---9---9\7---7---7---7---7---7---7---7\|
G|---------------------------------------------------------------|
D|---------------------------------------------------------------|
A|-7---7---7---7---7---7---7---7\6---6---6---6---6---6---6---6\--|
E|---------------------------------------------------------------|
                                                                   X2
e|---------------------------------------------------------------|
B|---5---5---5---5\4---4---4---4\2---2---2---2---2---2---2---2---|
G|---------------------------------------------------------------|
D|---------------------------------------------------------------|
A|-4---4---4---4\2---2---2---2\0---0---0---0---0---0---0---0-----|
E|---------------------------------------------------------------|


[Prechorus]

e|---------------------------------------------------------------|
B|---2---2---2---2/9---9---9---9\4---4---4---4---4---4---4---4---|
G|---------------------------------------------------------------|
D|---------------------------------------------------------------| X2
A|-0---0---0---0/7---7---7---7\2---2---2---2---2---2---2---2-----|
E|---------------------------------------------------------------|


[Chorus]

e|----------------------------------------------------------------|
B|---9---9---9---9---9---9---9---9/12--12--12--12--12--12--12--12\|
G|----------------------------------------------------------------|
D|----------------------------------------------------------------|
A|-7---7---7---7---7---7---7---7/11--11--11--11--11--11--11--11\--|
E|----------------------------------------------------------------|
                                                                    X2
e|----------------------------------------------------------------|
B|---5---5---5---5\4---4---4---4\2---2---2---2---2---2---2---2----|
G|----------------------------------------------------------------|
D|----------------------------------------------------------------|
A|-4---4---4---4\2---2---2---2\0---0---0---0---0---0---0---0------|
E|----------------------------------------------------------------|


[Instrumental]

At this point, it sounds like Switchfoot plays the fingerpicking pattern used throughout the song.. 
How I like to play it is tabbed below. Just play a strum pattern that feels right.
Essentially, I am strumming A form bar chords with the D string muted. 
Or you may just finger pick the parts below like the rest of the song.
e|---------------------------------------------------------------|
B|-9---9---9---9---9---9---9---9\7---7---7---7---7---7---7---7/--|
G|-9---9---9---9---9---9---9---9\8---8---8---8---8---8---8---8/--|
D|---------------------------------------------------------------|
A|-7---7---7---7---7---7---7---7\6---6---6---6---6---6---6---6/--|
E|---------------------------------------------------------------|

e|---------------------------------------------------------------|
B|-12--12--12--12--12--12--12--12\2---2---2---2---2---2---2---2--|
G|-13--13--13--13--13--13--13--13\2---2---2---2---2---2---2---2--|
D|---------------------------------------------------------------|
A|-11--11--11--11--11--11--11--11\0---0---0---0---0---0---0---0--|
E|---------------------------------------------------------------|


[Chorus]

e|----------------------------------------------------------------|
B|---9---9---9---9---9---9---9---9/12--12--12--12--12--12--12--12\|
G|----------------------------------------------------------------|
D|----------------------------------------------------------------|
A|-7---7---7---7---7---7---7---7/11--11--11--11--11--11--11--11\--|
E|----------------------------------------------------------------|

e|----------------------------------------------------------------|
B|---5---5---5---5\4---4---4---4\2---2---2---2---2---2---2---2----|
G|----------------------------------------------------------------|
D|----------------------------------------------------------------| 
A|-4---4---4---4\2---2---2---2\0---0---0---0---0---0---0---0------|
E|----------------------------------------------------------------|

e|----------------------------------------------------------------|
B|---9---9---9---9---9---9---9---9/12--12--12--12--12--12--12--12\|
G|----------------------------------------------------------------|
D|----------------------------------------------------------------|
A|-7---7---7---7---7---7---7---7/11--11--11--11--11--11--11--11\--|
E|----------------------------------------------------------------|

e|----------------------------------------------------------------|
B|---5---5---5---5\4---4---4---4\2--------------------------------|
G|----------------------------------------------------------------|
D|----------------------------------------------------------------| 
A|-4---4---4---4\2---2---2---2\0----------------------------------|
E|----------------------------------------------------------------|


[Instrumental]
At this point you may play the verse riff or the one I play which I tabbed below.
e|---------------------------------------------------------------|
B|-9---9---9---9---9---9---9---9\7---7---7---7---7---7---7---7\--|
G|-9---9---9---9---9---9---9---9\8---8---8---8---8---8---8---8\--|
D|---------------------------------------------------------------|
A|-7---7---7---7---7---7---7---7\6---6---6---6---6---6---6---6\--|
E|---------------------------------------------------------------|

e|---------------------------------------------------------------|
B|-5---5---5---5\4---4---4---4\2---2---2---2---2---2---2---2-----|
G|-6---6---6---6\4---4---4---4\2---2---2---2---2---2---2---2-----|
D|---------------------------------------------------------------|
A|-4---4---4---4\2---2---2---2\0---0---0---0---0---0---0---0-----|
E|---------------------------------------------------------------|


[Bridge]

e|---------------------------------------------------------------|
B|-9---9---9---9---9---9---9---9\7---7---7---7---7---7---7---7\--|
G|-9---9---9---9---9---9---9---9\8---8---8---8---8---8---8---8\--|
D|---------------------------------------------------------------|
A|-7---7---7---7---7---7---7---7\6---6---6---6---6---6---6---6\--|
E|---------------------------------------------------------------|
                                                                   X2
e|---------------------------------------------------------------|
B|-5---5---5---5\4---4---4---4\2---2---2---2---2---2---2---2-----|
G|-6---6---6---6\4---4---4---4\2---2---2---2---2---2---2---2-----|
D|---------------------------------------------------------------|
A|-4---4---4---4\2---2---2---2\0---0---0---0---0---0---0---0-----|
E|---------------------------------------------------------------|


[Instrumental]

e|---------------------------------------------------------------|
B|-9---9---9---9---9---9---9---9\7---7---7---7---7---7---7---7\--|
G|-9---9---9---9---9---9---9---9\8---8---8---8---8---8---8---8\--|
D|---------------------------------------------------------------|
A|-7---7---7---7---7---7---7---7\6---6---6---6---6---6---6---6\--|
E|---------------------------------------------------------------|

e|---------------------------------------------------------------|
B|-5---5---5---5\4---4---4---4\2---2---2---2---2---2---2---2-----|
G|-6---6---6---6\4---4---4---4\2---2---2---2---2---2---2---2-----|
D|---------------------------------------------------------------|
A|-4---4---4---4\2---2---2---2\0---0---0---0---0---0---0---0-----|
E|---------------------------------------------------------------|


[Outro]

e|--------------------------------------------------------------|
B|---9---9---9---9---9---9---9---9\7---7---7---7/10--10--10--10-|
G|--------------------------------------------------------------|
D|--------------------------------------------------------------| X2
A|-7---7---7---7---7---7---7---7\6---6---6---6/9---9---9---9----|
E|--------------------------------------------------------------|

e|---|
B|-9-|
G|---|
D|---|    <- Let ring
A|-7-|
E|---|


************************************

| /   Slide up
| \   Slide down

************************************

            
            
Suggest correction
Creating personal tab
Creating personal tab
You can edit any tab online and save it as your Personal.

You can edit, replace or remove any tab part or add personal notes – all changes will be seen only by you.

Personal tabs can be accessed anytime from any device, even offline.
Learn more »
comments
print report bad tab
guest
You may want to rate the tab now too:
select rating
Wanna post a correction for this tab? Suggest correction