Oops, an error
Loading. Please wait.

I Wont Let You Go Acoustic tab

version 2
version 2

Whole song

1,855 views 42 this week
no commentswrite comment
1 2 3 4 5
x 7
add to favorites
×
Save as Personal and add changes to this tab that will be seen only by you. Learn more ›
×
You can save this tab as Personal to edit and correct it or add notes. All changes will be seen only by you. Learn more »
launch autoscroll
font size
0
reset
how to read this tab
guitar tuner
edit
Autoscroll
slow
fast
+/-
esc
set tempo
stop
Author
Difficulty
'I Won't Let You Go' - Switchfoot
Key: E


[Intro]

e|---------------------------------------------------------------------------|
B|----9---9---9---9---9---9---9---9---7---7---7---7---10---10---10---10------|
G|---------------------------------------------------------------------------|
D|---------------------------------------------------------------------------|
A|--7---7---7---7---7---7---7---7---6---6---6---6---9----9----9----9---------|
E|---------------------------------------------------------------------------|

e|---------------------------------------------------------------------------|
B|----9---9---9---9---9---9---9---9---7---7---7---7---10---10---10---10------|
G|---------------------------------------------------------------------------|
D|---------------------------------------------------------------------------|
A|--7---7---7---7---7---7---7---7---6---6---6---6---9----9----9----9---------|
E|---------------------------------------------------------------------------|


[Verse 1]

              E                                (G#m)

        When in feels like surgery, and it burns like third degree
e|---------------------------------------------------------------------------| 
B|----9---9---9---9---9---9---9---9---7---7---7---7---7---7---7---7----------|
G|---------------------------------------------------------------------------|
D|---------------------------------------------------------------------------|
A|--7---7---7---7---7---7---7---7---6---6---6---6---6---6---6---6------------|
E|---------------------------------------------------------------------------|


             C#m           B             A

                And you wonder, what is it worth
e|---------------------------------------------------------------------------|
B|----5---5---5---5---4---4---4---4-----2---2---2---2---2---2---2------------|
G|------------------------------------2---2---2---2---2---2---2---2----------|
D|---------------------------------------------------------------------------|
A|--4---4---4---4---2---2---2---2--------------------------------------------|
E|---------------------------------------------------------------------------|

When your inside's breaking in, and you feel that ache again,
And you wonder, what's givin' birth,

(the rest of the song has already been tabbed well by frenchboy..but here it is again)


[Pre-Chorus]

A                     E               B
If you could let the pain of the past go,
             A               E           B
Of you soul, none of this is in your control,


[Chorus]

                  E
If you could only let your guard down,
                      G#m
If you could learn to trust me somehow,
  C#m           B            A
I swear that I won't let you go,
                  E
If you could only let go your doubts,
                   G#m
If you could just believe in me now,
  C#m          B             A
I swear that I won't let you go,


[Intro]

I won't let you go,


[Verse 2]

 E                                           G#m
When your fear is currency, and you feel that urgency,
         C#m                B           A
You want peace, but there's war in your head,
 E                                             G#m
Well maybe that's where life is born, when our facades are torn,
           C#m          B        A
Pain gives birth to the promise ahead,


[Pre-Chorus/Chorus]

                F#m  B
I won't let you go
G#m                    A
I'll always be by your side, 


[Pre-Chorus/Chorus]


[Bridge]

      E
There ain’t no darkness strong enough,
            G#m
That could tear you out from my heart,
      C#m                      B
There ain’t no strength that’s strong enough,
           A
That could tear this love apart,

      E                             
There ain’t no darkness strong enough,
            G#m
That could tear you out from my heart,
      C#m                      B
There ain’t no strength that’s strong enough,
           A
That could tear this love apart,
                     E    G#m
Never gonna let you go,
                     C#m   B   A
Never gonna let you go,  


[Intro/Outro]

(Intro Riff)

No I won't let you go
Suggest correction
Creating personal tab
Creating personal tab
You can edit any tab online and save it as your Personal.

You can edit, replace or remove any tab part or add personal notes – all changes will be seen only by you.

Personal tabs can be accessed anytime from any device, even offline.
Learn more »
comments
print report bad tab
guest
You may want to rate the tab now too:
select rating
Wanna post a correction for this tab? Suggest correction