Oops, an error
Loading. Please wait.

Innocence Again bass

version 2
version 2

Whole song

Interactive

1,259 views 1 this week
1 commentread comment
1 2 3 4 5
2 more votes to show rating
add to favorites
×
Save as Personal and add changes to this tab that will be seen only by you. Learn more ›
×
You can save this tab as Personal to edit and correct it or add notes. All changes will be seen only by you. Learn more »
launch autoscroll
font size
0
reset
guitar tuner
edit
Autoscroll
slow
fast
+/-
esc
set tempo
stop
Innocence Again Bass Tabs
Song: Innocence Again
Artist: Switchfoot
Album: Learning to Breathe
Tabbed by: SuperDuperAwesomeGuy :D

These are the notes I play.  Unfortunately, you'll have to work on the timing.  If you 
up your bass and listen well, you should be able to get it.

Intro
G-------------|
D-------------|
A--5-50-05-50-|
E-------------|

Verse
G----------------------------------------|
D----------------------------------------|
A--5-5-0-5----------------3-----------7--|
E----------3-4-6-6-1--1-1---1-3-4-5-5----|

Prechorus
G------------------------------------------------------|
D------------------------------------------------------|
A-----------------------------------------------3-3-3--|
E--66666666-11111111-66666666-11111111-33333333--------|

Chorus
G---------------------------------------------|
D---------------------------------------------|
A--5-50---------------0---5-50----1111111-0---|
E-------6-6-1-1-1-1-5----------6-6------------|

Play the intro a bit before going back into the verse.

Verse
Prechorus

Guitar solo
G----------------------|
D--3-------------------|
A----5----------1------|
E--------1----3-----5--|

Ba ba ba ba ba ba ba... :)
G-------------------------------------------------|
D----7-----------------7--------------------------|
A--5-------8-----3---7-----5-------------3-----7--|
E--------6-----1-------------5---6-1---1-----5----|

Verse
Chorus

Outro
G--------|
D--------|
A-----1--|
E--1-----|
(It's just F's and Bb's until the end.  Listen for it.)

            
            
Suggest correction
Creating personal tab
Creating personal tab
You can edit any tab online and save it as your Personal.

You can edit, replace or remove any tab part or add personal notes – all changes will be seen only by you.

Personal tabs can be accessed anytime from any device, even offline.
Learn more »
Give kudos to tab author, rate the tab!
1 2 3 4 5
comments
print report bad tab
1 comment total.
0 reply
chevylease 23 Aug 17, 2014 04:37 PM

Lack of accuracy.

guest
Wanna post a correction for this tab? Suggest correction