Oops, an error
Loading. Please wait.

Let That Be Enough Tab

version 1
version 1

Whole song

Interactive

83,768 views 18 this week
19 commentsread comments
1 2 3 4 5
x 61
add to favorites
×
Save as Personal and add changes to this tab that will be seen only by you. Learn more ›
×
You can save this tab as Personal to edit and correct it or add notes. All changes will be seen only by you. Learn more »
save as personal
new!
launch autoscroll
font size
0
reset
how to read this tab
guitar tuner
Autoscroll
slow
fast
+/-
esc
set tempo
stop
Author
[Intro]
E|---------------------------------------------------------------------|
B|---------------------------------------------------------------------|
G|---1---1---1-2p1----4--4---4--------1-1-----1---1---4---4---4-6-4----|
D|-----2----------2------------2p1--------2-----2-------------2-2-2----|
A|---------0--------4--2---0------2---------0-------4---2---0----------|
E|-0--------------------------------0----------------------------------|

[Verse]
E|---------------------------------------------------------------------|
B|---------------------------------------------------------------------|
G|---1---1---1---1---4---4---4---4-------------------------------------|
D|-----2-------2---------------2---------------------------------------|
A|---------0-------4---2---0-------------------------------------------|
E|-0-------------------------------------------------------------------|(x4)

[Pre-Chorus]
E|---------------------------------------------------------------------|
B|-----0-----0---------0-----0---------0-----0-------------------------|
G|---3---3-----2-----1---1-----2-----3---3-----2-----1---1---2---2-----|
D|---------------2---------------2---------------2-----2-------2-------|
A|---------0---------------0---------------0---------------0-----------|
E|-2---------------0---------------2---------------0-------------------|

[Chorus]
           () x3      then:
E|-(-----------------)-------------------------------------------------|
B|-(-----------------)-------------------------------------------------|
G|-(---4---4---4---4-)-----4---4---------------------------------------|
D|-(-----4-------2---)-------------------------------------------------|
A|-(-2-------0-------)---0---2-----------------------------------------|
E|-(-----------------)-------------------------------------------------|

Lead into verse:
E|---------------------------------------------------------------------|
B|-----0---------------------------------------------------------------|
G|---1---1---2-2p1-----4---4---4-6-4-----------------------------------|
D|-----------------2-----------2-2-2-----------------------------------|
A|---------0---------4---2---0-----------------------------------------|
E|-0-------------------------------------------------------------------|

[Verse]
E|---------------------------------------------------------------------|
B|---------------------------------------------------------------------|
G|---1---1---1---1---4---4---4---4-------------------------------------|
D|-----2-------2---------------2---------------------------------------|
A|---------0-------4---2---0-------------------------------------------|
E|-0-------------------------------------------------------------------|(x2)

[Pre-Chorus 2]
E|---------------------------------------------------------------------|
B|-----0-----0---------0-----0---------0-----0-------0-------0---------|
G|---3---3-----2-----1---1-----2-----3---3-----2-------1-------2-------|
D|---------------2---------------2---------------2-------2-------2-----|
A|---------0---------------0---------------0---------------0-----------|
E|-2---------------0---------------2---------------0-------------------|

[Chorus]

       Play () x3      then:
E|-(-----------------)-------------------------------------------------|
B|-(-----------------)-------------------0-----------------------------|
G|-(---4---4---4---4-)---------4---4---1---1---------------------------|
D|-(-----4-------2---)-----------4-------------------------------------|
A|-(-2-------0-------)-------2-----------------------------------------|
E|-(-----------------)---------------0---------------------------------|

Then play first chorus

[Ending]
E|------------------------------------------------------------------|
B|-----0------------------------------------0-----------------------|
G|---1---1---2-2p1-----4---4---4----------1---1---2-2p1-----4---4---|
D|-----------------2-------------2//4-2-----------------2-----------|
A|---------0---------4---2---0------------------0---------4---2---0-|
E|-0------------------------------------0---------------------------|

E|---------------------------------------------------------------------|
B|-----------0---------------------------------------------------------|
G|-4---------1---------------------------------------------------------|
D|-2-2//1----2---------------------------------------------------------|
A|--------2--2---------------------------------------------------------|
E|-----------0---------------------------------------------------------|



************************************

| p  Pull-off
| /  Slide up

************************************
Suggest correction
comments
print report bad tab
19 comments total. Showing first comments.
+5 reply
clapdrix99 10 Jan 07, 2003 07:00 PM

4 6 4
2 2 2

should be

4 4 4
2 4 2

+1 reply
RIP_FIF 10 Feb 08, 2004 07:00 PM

before the:
--4-----4---4
---------------
4---2----0----
there should be a slide 2/4 on the A string.

0 reply
RIP_FIF 10 Feb 08, 2004 07:00 PM

That is consitant throughout the song.

guest
You may want to rate the tab now too:
select rating
Wanna post a correction for this tab? Suggest correction