Oops, an error
Loading. Please wait.

Let Your Love Be Strong tab

version 1
version 1

Whole song

27,195 views 6 this week
12 commentsread comments
1 2 3 4 5
x 33
add to favorites
×
Save as Personal and add changes to this tab that will be seen only by you. Learn more ›
×
You can save this tab as Personal to edit and correct it or add notes. All changes will be seen only by you. Learn more »
launch autoscroll
font size
0
reset
how to read this tab
guitar tuner
edit
Autoscroll
slow
fast
+/-
esc
set tempo
stop
Beautiful song by Jon Foreman, my first tab ever.


Certain chords may be hard to reach for some people, so you can opt to play
the notes that I've put in the parentheses instead of the difficult notes.

The rhythm isn't really that straightforward in this song... all you have to do is keep listening
to the track and trying it yourself.  Best of luck.


Intro
E|-------------------------------------------------------------------------------------------|
B|-------------------------------------------------------------------------------------------|
G|-------------------------------------------------------------------------------------------|
D|-----------4------4-----4------5b2b0-----7------8-----8-------8b--0------------------------|
A|--------0-----0-----0------0-----------0----0------7-----7---------------------------------|
D|--0------------------------------------------------------------------0---------------------|

E|-------------------------------------------------------------------------------------------|
B|-------------------------------------------------------------------------------------------|
G|-------------------------------------------------------------------------------------------|
D|---9-----11-----11------11b--0------12------14-------14----------14/16---------------------|
A|-------0------9------9-----------------0--------12--------12-------------------------------|
D|-------------------------------0-----------------------------------------------------------|

E|-------------------------------------------------------------------------------------------|
B|-------------------------------------------------------------------------------------------|
G|-------------------------------------------------------------------------------------------|
D|--------4------4-----4------5b2b0-----7------8-----8-------8b--0---------------------------|
A|-----0-----0-----0------0----------0-----0------7-----7------------------------------------|
D|------------------------------------------------------------------0------------------------|

E|-------------------------------------------------------------------------------------------|
B|-------------------------------------------------------------------------------------------|
G|-------------------------------------------------------------------------------------------|
D|---9-----11-----11------11b--0------12------14-------14--------14-------14-----------------|
A|-------0------9------9----------------0--------12--------12-------12-------12--------------|
D|--------------------------------0----------------------------------------------------------|


Verse
(Both of these lines x2)
E|-------------------------------------------------------------------------------------------|
B|-------------------------------------------------------------------------------------------|
G|---------------------------------------------------(2)----------(2)----------(2)-----------|
D|--------------4-----4------4------------------------7------------7------------7------------|
A|----------0-----0-----0------0-----------0-----4----------4-----------4------------4-------|
D|----0---------------------------------------4----------------4-----------4-----------------|

E|-------------------------------------------------------------------------------------------|
B|-------------------------------------------------------------------------------------------|
G|--------------(7)--------------------(7)---------------------(6)-------------------(4)-----|
D|--------------12----------------------12----------------------11--------------------9------|
A|----------9---------9------------8--------8--------------7---------7-------------5----5----|
D|---4/-9---------------9-----8----------------8------7-----------------7------5----------5--|

Between verses...
E|-------------------------------------------------------------------------------------------|
B|-------------------------------------------------------------------------------------------|
G|-------------------------------------------------------------------------------------------|
D|-----------4------4-----4------5b2b0------4-------4-------4-------4------------------------|
A|--------0-----0-----0------0-----------0------0-------0-------0----------------------------|
D|--0----------------------------------------------------------------------------------------|

Play the verse again 2x


Pre-Chorus
E|----------------------------------------------------------------------|
B|----------------------------------------------------------------------|
G|----------------------------------------------------------------------|
D|-----------4------4-----4------4b-0------4----------------------------|
A|--------0-----0-----0------0----------0-----0-------------------------|
D|--0-------------------------------------------------------------------|
Live, Jon does the 5b-2b-0 in this part - in one video he does 4b-2b-0--|

Chorus
You can either strum these chords on each beat - like the recorded version, or you can
fingerpick them like the verses - the way Jon plays it live. I prefer the picking
E|-------------------------------------------------------------|
B|-------------------------------------------------------------|
G|---------(7)----------(4)------------------------------------|
D|---------12------------9-------------4-----------------------|
A|----------9------------5-------------0-----------------------|
D|----------9------------5-------------0-----------------------|
   Let your love be strong, and I don't care what goes down
E|-------------------------------------------------------------|
B|-------------------------------------------------------------|
G|---------(7)-------(6)---------------------------------------|
D|---------12--------11--------4--------5----------------------|
A|----------9---------7--------0--------5----------------------|
D|----------9---------7--------0--------5----------------------|
   Let your love be strong enough to weather through the thunderclouds
E|-------------------------------------------------------------|
B|-------------------------------------------------------------|
G|--------(7)-----(7)------(2)-----(4)-------------------------|
D|--------12------12--------7-------9----------4---------------|
A|---------9-------8--------3-------5----------0---------------|
D|---------9-------8--------3-------5----------0---------------|
   Fury and thunderclap like stealing the fire from your eyes

E|---------------------------------------------------------------------------------------------|
B|--------------8-------------------10--------------------12---------12----------12------------|
G|---------------------------------------------------------------------------------------------|
D|-----------9-----9-------------11----11--------------12--------12---------12----------12-----|
A|--------7-----------7-------9------------9--------10-------------10---------10-----------10--|
D|---------------------------------------------------------------------------------------------|
   All of my world hanging on your love


Between 1st Chorus and 2nd Verse
E|-----------------------------------------------------------------------------------|
B|-----------------------------------------------------------------------------------|
G|-----------------------------------------------------------------------------------|
D|-----------4------4-----4------5b2b0-----7------8-----8-------8b--0----------------|
A|--------0-----0-----0------0---------0------0------7-----7----------0--------------|
D|--0-------------------------------------------------------------------0------------|

E|-----------------------------------------------------------------------------------|
B|-----------------------------------------------------------------------------------|
G|-----------------------------------------------------------------------------------|
D|---4/--9-/11-----11------11b--0------12------14------14------14------14------------|
A|----------------9------9----------------0--------12-------12------12------12-------|
D|--------------------------------0--------------------------------------------------|

Verse 2x
Strum the chords this time around - it's fitting.


Chorus  (Last line x2)


Ending
E|-----------------------------------------------------------------------------------|
B|-----------------------------------------------------------------------------------|
G|-----------------------------------------------------------------------------------|
D|-----------4------4-----4------5b2b0-----7------8-----8-------8b--0----------------|
A|--------0-----0-----0------0---------0-------0------7-----7---------0--------------|
D|--0-------------------------------------------------------------------0------------|

E|-----------------------------------------------------------------------------------|
B|-----------------------------------------------------------------------------------|
G|-----------------------------------------------------------------------------------|
D|---4/--9-/11-----11------11b--0------12------14------14------14------14------------|
A|----------------9------9--------0--------0-------12-----12------13------13---------|
D|----------------------------------0------------------------------------------------|

E|---------------------------------------------------|
B|-----------------------------------3---------------|
G|-----------------------------------2---------------|
D|----14---------14/-16--------------0---------------|
A|---------13------------------------0---------------|
D|-----------------------------0--0--0---------------|

            
            
Suggest correction
Creating personal tab
Creating personal tab
You can edit any tab online and save it as your Personal.

You can edit, replace or remove any tab part or add personal notes – all changes will be seen only by you.

Personal tabs can be accessed anytime from any device, even offline.
Learn more »
comments
print report bad tab
12 comments total. Showing first comments.
0 reply
..laura.. 10 May 10, 2007 05:04 PM

awesome tab, i love this song!

0 reply
damole 50 Aug 27, 2007 06:35 AM

great job 5 stars

0 reply
damole 50 Aug 27, 2007 06:35 AM

btw wut does "b" mean and how do u do it

guest
You may want to rate the tab now too:
select rating
Wanna post a correction for this tab? Suggest correction