Oops, an error
Loading. Please wait.

Let Your Love Be Strong tab

version 2
version 2

Whole song

1,192 views 1 this week
3 commentsread comments
1 2 3 4 5
2 more votes to show rating
add to favorites
×
Save as Personal and add changes to this tab that will be seen only by you. Learn more ›
×
You can save this tab as Personal to edit and correct it or add notes. All changes will be seen only by you. Learn more »
launch autoscroll
font size
0
reset
how to read this tab
guitar tuner
edit
Autoscroll
slow
fast
+/-
esc
set tempo
stop
Artist: Switchfoot
Album:  Oh! Gravity
Title:  Let Your Love Be Strong

tabbed by: Dave H.  - daveo@bored.com

I tabbed this song today under the assumption that there was no tab available for it, 
now I found that there is, and a good one at that.
It's still worth submitting i suppose, since we had slightly different takes on certain 
of the song, particularly the chorus.

This song's kinda tough, but I think it's worth learning.  Enjoy!


Intro (2x) [0:00 - 0:29]
E----------------------------------------------------------------|
B----------------------------------------------------------------|
G------------------------------------------2-------3-------3-----|
D--------4-------4-------4-------5p4p0-----------------2-------2-|
A------0-----0-------0-------0---------0-------0-----------------|
D--0-------------------------------------------------------------|
                                                                1.      2.
E----------------------------------------------------------------------|---------------|
B-----------------2-------2-------2-------3-------5-------5-------5/7--|-5-------5-----|
G-3-------4-------------------------------------------2-------2--------|-----2-------2-|
D---0---------0-------4-------4-----0----------------------------------|---------------|
A-----0-------------------------------0-------0------------------------|---------------|
D-------0-------------------------------0------------------------------|---------------|

Verse Riff 1 (2x) [0:30 - 0:56]
E----------------------------------------------------------------|
B----------------------------------------------------------------|
G----------------------------------------2-------2-------2-------|
D--------4-------4-------4---------------------------------------|
A------0-----0-------0-------0---0-----------4-------4-------4---|
D--0-------------------------------4---4-------------------------|

E-------------------------------------------------------------|
B----------3---------------3-------------2-------------0------|
G-------------------------------------------------------------|
D--------------4---------------3-------------2-------------0--|
A--4-2---2---------0-1---1---------0-0------------------------|
D------------------------------------------------5-5----------|

Verse Riff 2 [0:57 - 1:02]
E----------------------------------------------------------------|
B----------------------------------------------------------------|
G----------------------------------------------------------------|
D--------4-------4-------4-------5p4p0-----4-------4-------4-----|
A------0-----0-------0-------0---------0-------0-------0-------0-|
D--0-------------------------------------------------------------|

Verse Riff 3 (2x) [1:03 - 1:28]
E------------------------------------------------------------------|
B------------------------------------------------------------------|
G--------------------------------------------------2-------2-------|
D--4-------0-------0-------0---------------4-----------------------|
A--------0-----0-------0-------0---------4-----4-------4-------4---|
D----0-----------0-------0-------0---4-----------4-------4-------4-|

E-----------------------------------------------------------|
B--------3---------------3-------------2-------------0------|
G-----------------------------------------------------------|
D------4-----4---------3-----3-------------2-------------0--|
A--2-------------0-1-------------0-0------------------------|
D----------------------------------------------5-5----------|

Pre-Chorus [1:29 - 1:34]
E-------------------------------------------------|
B-------------------------------------------------|
G-------------------------------------------------|
D--------4-------4-------4-------4---------4------|
A------0-----0-------0-------0-----5---0-------0--|
D--0----------------------------------------------|

Chorus Transcribed [1:35 - 1:54]
   Bmin            G7     D
E--5---------2-----2----------------2---------------------------------|
B--3-----3---------3------------3-------------------------------------|
G--4---4-----------4----------2---------------------------------------|
D----------------5-5------0-------------4-----------------------------|
A---------------------------------------------------------------------|
D---------------------------------------------------------------------|

   Bmin            A      D             G5
E--5---------2---0-0-----------------2----3-------------------------------|
B--3-----3---------2------------3---------3-------------------------------|
G--4---4-----------2----------2---------0-0-------------------------------|
D------------------2------0-----------------------------------------------|
A-------------------------------------------------------------------------|
D-------------------------------------------------------------------------|

   Bmin            F               F               G        D
E--5---------2-----1---------------1---------------3--------2--|
B--3-----3---------1---------------1-----3---1-----3--------3--|
G--4---4-----------2---------------2---2---------4-4--------2--|
D------------------3---------------3---------------5--------0--|
A-----------------------------------------------------------0--|
D-----------------------------------------------------------0--|

Chorus Outro [1:55 - 2:01]
E--------3---------------4---------------7-------7---------7-------|
B------------------------------------------------------------------|
G------------4---------------5---------------7-------7---------7---|
D------0-------0-------0-------0-------0-------0-------0---------0-|
A------------------------------------------------------------------|
D--2---------------3---------------5-------------------------------|

Bridge [2:02 - 2:16]
E----------------------------------------------------------------|
B----------------------------------------------------------------|
G------------------------------------------2-------3-------3-----|
D--------4-------4-------4-------5p4p0-----------------2-------2-|
A------0-----0-------0-------0---------0-------0-----------------|
D--0-------------------------------------------------------------|

E--------------------------------------------------------------------------------|
B------------------------------------------3-------5-------5-------5-------5-----|
G-3----------------------------------------------------2-------2-------2-------2-|
D---0-----4-/-9---11------11------11p0-------------------------------------------|
A-----0---------------9-------9--------0-------0---------------------------------|
D-------0--------------------------------0---------------------------------------|

[2:17 - 2:44] has no guitar part, but playing verse 1 or 3 (2x) works.  Or you could play each once.
[2:45 - 3:07] CHORUS
[3:08 - 3:21] Chorus Outro (2x)
[3:22 - 3:35] Bridge

Ending Riff (slowly) [3:36]
E-------------|
B--5/6-----3--|
G----------2--|
D----------0--|
A------0------|
D--------0----|

            
            
Suggest correction
Creating personal tab
Creating personal tab
You can edit any tab online and save it as your Personal.

You can edit, replace or remove any tab part or add personal notes – all changes will be seen only by you.

Personal tabs can be accessed anytime from any device, even offline.
Learn more »
Give kudos to tab author, rate the tab!
1 2 3 4 5
comments
print report bad tab
3 comments total.
0 reply
dave04 153 Jan 10, 2007 01:23 PM

quick correction for the chorus :( Note the second chord!

Bmin A# F G D
E--5---------2-----1---------------1---------------3--------2--|
B--3-----3---------3---------------1-----3---1-----3--------3--|
G--4---4-----------3---------------2---2---------4-4--------2--|
D------------------3---------------3---------------5--------0--|
A-----------------------------------------------------------0--|
D-----------------------------------------------------------0--|

+1 reply
Rogue Guitar 10 Oct 31, 2007 11:01 PM

fairly gud but da other 1 is better

0 reply
hurricaneherman 2,230 May 09, 2011 03:30 PM

Most of the notes sound correct, but the way you laid them out, makes it really hard to play.

guest
You may want to rate the tab now too:
select rating
Wanna post a correction for this tab? Suggest correction