Oops, an error
Loading. Please wait.

Living Is Simple bass

886 views 1 this week
no commentswrite comment
1 2 3 4 5
2 more votes to show rating
add to favorites
×
Save as Personal and add changes to this tab that will be seen only by you. Learn more ›
×
You can save this tab as Personal to edit and correct it or add notes. All changes will be seen only by you. Learn more »
launch autoscroll
font size
0
reset
guitar tuner
edit
Autoscroll
slow
fast
+/-
esc
set tempo
stop
Author
Difficulty
-------------------------------------------------------------------------------
			     Living Is Simple - Switchfoot
-------------------------------------------------------------------------------

Tabbed By : relientfoot
e-mail: rememberdefcow@gmail.com

This song is all about timing so you'll have to listen to it a few times before you'll 
able to play it.

Tuning: Standard (EADG)

[INTRO]
	...Simple
G|---------------------------------------------|
D|---------------------------------------------|
A|--------7---7---5--------7-5---7-----5-777---|
E|------0---57-7----5--10-9----0---5-7------7--| x2

[VERSE 1]
  Living is simple its gravity...
G|---------------------------------------------|
D|-----02------------------02--------02--------|
A|---2-------5-5--5-7-5---2---------2----------|
E|-0-----0-0-----7------0-----0-0-0------0-0---|x2

   I'm falling apart again  [then little guitar riff thing]
G|--------------------------------------------------------------|
D|--------------------------------------------------------------|
A|--------------2-22222-2222--------999-99--------999-99--------|
E|--2-22222-2222-------------00--77--------00--77---------------|

[Verse 2]
  Living is simple and breathing is easy...
G|---------------------------------------------|
D|-----02------------------02--------02--------|
A|---2-------5-5--5-7-5---2---------2----------|
E|-0-----0-0-----7------0-----0-0-0------0-0---|x2

  I'm losing my cool again
G|---------------------------------|
D|---------------------------------|
A|--------------2-22222-2222-------|
E|--2-22222-2222------------0------|

[Pre-chorus 1]
  All will be made well will be made well will be made well will be well
G|----------------------------------------------------------------------------|
D|--------------------------------------------------9-------11--13--16--------|
A|------no bass------------------------7-------7--------9---------------------|
E|-----------------------------------------7----------------------------------|

[Chorus]
  Is this fiction?
G|---------------------------------------------------------|
D|---------------------------------------------------------|
A|--------------------0-00000-00002-22222-22220-00000------|
E|--------0-00000-0000-------------------------------------|

  Is this fiction or divine comedy?                       ...Simple
G|------------------------------------------------------------------------|
D|------------------------------------------------------------------------|
A|--------------------0-00000-00002-22222-2222--------------[bass cuts]---|
E|--------0-00000-0000------------------------2-22222-2222----------------|

[INTRO] (1:49)
	...Simple
G|---------------------------------------------|
D|---------------------------------------------|
A|--------7---7---5--------7-5---7-----5-777---|
E|------0---57-7----5--10-9----0---5-7------7--|

[VERSE 3]
  Living is dying...
G|---------------------------------------------|
D|-----02------------------02--------02--------|
A|---2-------5-5--5-7-5---2---------2----------|
E|-0-----0-0-----7------0-----0-0-0------0-0---|x2

  Confessing my needs again  [then little guitar riff thing x2]
G|--------------------------------------------------------------|
D|--------------------------------------------------------------|
A|--------------2-22222-2222--------999-99--------999-99--------|
E|--2-22222-2222-------------00--77--------00--77---------------|repeat the guitar riff part

I've had my choices... (2:32) NO BASS

[Chorus] (2:50)
  Is this fiction?
G|---------------------------------------------------------|
D|---------------------------------------------------------|
A|--------------------0-00000-00002-22222-22220-00000------|
E|--------0-00000-0000-------------------------------------|

  Is this fiction or divine comedy?
G|-------------------------------------------------------------|
D|-------------------------------------------------------------|
A|--------------------0-00000-00002-22222-2222-----------------|
E|--------0-00000-0000------------------------2-22222-2222-----|

  ...Simple, Living is Simple
G|---------------------------------------------------------------------------|
D|---------------------------------------------------------------------------|
A|-------------2-22222-2222------------2-22222-22220-00000-00000-00000-0000--|
E|-0-00000-0000------------2-22222-2222--------------------------------------|

[Outro]
  ...Simple
G|-----------------------------------------|
D|-----------------------------------------|
A|----2---------------------0--------------|
E|-----------0-------2---------------------|x2

  (3:41)
G|------------------------------------------|
D|------6-7-6--------------------9----------|
A|--7-9---------7---2---------------9-------|
E|----------------------4---2---------------| (keep repeating; bass fades out)


| /  slide up
| \  slide down
| h  hammer-on
| p  pull-off
| ~  vibrato
| +  harmonic
| x  Mute note
===============================================================================

            
            
Suggest correction
Creating personal tab
Creating personal tab
You can edit any tab online and save it as your Personal.

You can edit, replace or remove any tab part or add personal notes – all changes will be seen only by you.

Personal tabs can be accessed anytime from any device, even offline.
Learn more »
Give kudos to tab author, rate the tab!
1 2 3 4 5
comments
print report bad tab
guest
You may want to rate the tab now too:
select rating
Wanna post a correction for this tab? Suggest correction