Oops, an error
Loading. Please wait.

Lonely Nation bass

version 1
version 1

Whole song

Interactive

1,708 views 3 this week
2 commentsread comments
1 2 3 4 5
x 3
add to favorites
×
Save as Personal and add changes to this tab that will be seen only by you. Learn more ›
×
You can save this tab as Personal to edit and correct it or add notes. All changes will be seen only by you. Learn more »
launch autoscroll
font size
0
reset
guitar tuner
edit
Autoscroll
slow
fast
+/-
esc
set tempo
stop
Artist: Switchfoot
Song: Lonely Nation
Album: Nothing Is Sound

Drop D Tuning

h= hold
/= slide

This song is really fun and is probably one of my favorites to play.

Intro/Verse:

G ------------------------------|          |-------------|
D ------------------------------|   X 7  |---------------|
A--------------------5-5-5-5-5-| then: |-33333333--------|
D -0/2-2-2-2 0h-0 2-2-----------|          |-------------|

G ------------------------------|          |--------------------------------|
D ------------------------------     X 3 |----------------------------------|
A--------------------5-5-5-5-5-| then: |-33333333-22222222-33333333---------|
D -0/2-2-2-2 0h-0 2-2-----------|          |--------------------------------|

Chorus:

G------------------------------------------------------------|
D--------------------4/5-----------5h----------------- | X 2-|
A--------5h--------------3333---3----3333---3-5h-------------|
D-5h---5-----0h---0------------------------------------------|

Verse:

G ------------------------------|          |-------------------|
D ------------------------------|   X 7  |---------------------|
A--------------------5-5-5-5-5-| then: |-33333333--2h/0--------|
D -0/2-2-2-2 0h-0 2-2-----------|          |-------------------|

G ------------------------------|          |-------------|
D ------------------------------|   X 3  |---------------|
A--------------------5-5-5-5-5-| then: |-33333333--------|
D -0/2-2-2-2 0h-0 2-2-----------|          |-------------|

Chorus:

G------------------------------------------------------------|
D--------------------4/5-----------5h----------------- | X 2-|
A--------5h--------------3333---3----3333---3-5h-------------|
D-5h---5-----0h---0------------------------------------------|

Bridge:

G------------------------------------------------------------------|
D--------5555--12-12-12-12-9999--------5555--14-14-14-14-9999------|
A--3333---------------------------3333-----------------------------|
D------------------------------------------------------------------|

G-------------------------------------------------------|
D-0000--------------------------------------------------|
A-----------------------------------------5--------5----|
D----------0000--0-2-2-0h--0-2-2-0h--0-2---2-0-2--------|

Verse 2:

G----------------------------------------------------|
D-0-2--2-5-2--2-0-2--2-5555-2222/5555/4444/2222------|
A----------------------------------------------------| then:
D----------------------------------------------------|

G---------------|          |----------------------------------|
D-0-2h--2-0000- |  X 4  |----------------5555/4444/2222-------|
A---------------| then: |-333333333333------------------------| then:
D---------------|          |----------------------------------|

G----------------------------------------------------|
D-0-2--2-5-2--2-0-2--2-5555-2222/5555/4444/2222------|
A----------------------------------------------------| then:
D----------------------------------------------------|

G---------------|
D-0-2h--2-0000- |  X 4
A---------------| then:
D---------------|

G-----------------------------------------------------------------|
D----------------5555/4444/2222-0 222222222-----------------------|
A-333333333333------------------------------333333333-5555555-----|
D-----------------------------------------------------------------|

Chorus:

G------------------------------------------------------------|
D--------------------4/5-----------5h----------------- | X 2-|
A--------5h--------------3333---3----3333---3-5h-------------|
D-5h---5-----0h---0------------------------------------------|

Outro:

G---------------------------------------------------------------------|
D---------------------------------------------------------------------|
A------------------5555------------------5555------5-------5----------|
D-0-222 0 222 0 222 -----0 222 0 222-0 222-------0-2---2-0-2---2-3h---|


Well that's everything. Enjoy!
Tabbed By Kevin Williams
Suggest correction
Creating personal tab
Creating personal tab
You can edit any tab online and save it as your Personal.

You can edit, replace or remove any tab part or add personal notes – all changes will be seen only by you.

Personal tabs can be accessed anytime from any device, even offline.
Learn more »
Give kudos to tab author, rate the tab!
1 2 3 4 5
comments
print report bad tab
2 comments total.
0 reply
blinkrocks 127 Jun 03, 2006 04:32 PM

this doesnt sound right but it might because there is so much distortion in the song and the bass isnt all that loud

0 reply
nelsonone99 37 May 22, 2008 12:00 PM

It sounds about right, but it's kinda hard to read.

guest
Wanna post a correction for this tab? Suggest correction