Oops, an error
Loading. Please wait.

Love Is A Movement bass

version 1
version 1

Whole song

Interactive

807 views 3 this week
2 commentsread comments
1 2 3 4 5
2 more votes to show rating
add to favorites
×
Save as Personal and add changes to this tab that will be seen only by you. Learn more ›
×
You can save this tab as Personal to edit and correct it or add notes. All changes will be seen only by you. Learn more »
launch autoscroll
font size
0
reset
guitar tuner
edit
Autoscroll
slow
fast
+/-
esc
set tempo
stop
Author
Difficulty
Hey, my first tab! It sounds good enough. Message me if there can be any corrections or 
need help. If you can get it or understand it just watch 
thanks.
 / = slide

Intro Part 1       x2              x1                x1
G|-------------12/11-|------------14/11-|------------12/11-------------||
D|----------12-------|---------12-------|---------12-------------------||
A|-0-17-10-----------|-0-17-10----------|-0-17-10----------------------||
E|-------------------|------------------|------------------------------||
Intro Part 2
G|----9/10-9/10------9/10-9/10------9/10-9/10------9/10-9/10-----------||
D|-----------------8-------------0---------------8------------0--------||
A|-00-----------000-----------000-----------000------------000---------||
E|---------------------------------------------------------------------||
Verse 1
G|--9-10-------9/10------9/10-----9/10------9/10-----------------------||
D|----------0---------0--------0---------------------------------------||
A|-------------------0-------------------0-----------------------------||
E|---------------------------------------------------------------------||
Chorus                                                2x
G|----9-10-9-10------------3-2-0----------------------------------------||
D|-----------------------3-------0--------------------------------------||
A|-00-----------000-1111--------------5----3333-4444--------------------||
E|---------------------------------3-3---2------------------------------||
Intro Part 2
G|----9/10-9/10------9/10-9/10------9/10-9/10------9/10-9/10-----------||
D|-----------------8-------------0---------------8------------0--------||
A|-00-----------000-----------000-----------000------------000---------||
E|---------------------------------------------------------------------||
Verse 2 The 1's are 1's not 11's                            3x
G|---------------------------------------------------------------------||
D|-00-0----------------------------------------------------------------||
A|---3-----0-----------------4-----------------------------------------||
E|------33---0-11111111--3-5---5-666-666-666-666-888-888-5686----------||
Pre-Chorus
G|---9/10-----9/10-----||
D|-0-------------------||
A|----------0----------||
E|---------------------||
Chorus                                                2x
G|----9-10-9-10------------3-2-0----------------------------------------||
D|-----------------------3-------0--------------------------------------||
A|-00-----------000-1111--------------5----3333-4444--------------------||
E|---------------------------------3-3---2------------------------------||
Bridge 3                4x But on last time end early!
G|----------------------------------------------------------------||
D|-----------------123--------------------------------------------||
A|-111111111-333333-----------------------------------------------||
E|----------------------------------------------------------------||
Intro Part 1       x2              x1                x1
G|-------------12/11-|------------14/11-|------------12/11-------------||
D|----------12-------|---------12-------|---------12-------------------||
A|-0-17-10-----------|-0-17-10----------|-0-17-10----------------------||
E|-------------------|------------------|------------------------------||
Intro Part 2
G|----9/10-9/10------9/10-9/10------9/10-9/10------9/10-9/10-----------||
D|-----------------8-------------0---------------8------------0--------||
A|-00-----------000-----------000-----------000------------000---------||
E|---------------------------------------------------------------------||
Pre-Chorus
G|---9/10-----9/10-----||
D|-0-------------------||
A|----------0----------||
E|---------------------||
Chorus       7x But end ealry on the last.
G|----9-10-9-10------------3-2-0----------------------------------------||
D|-----------------------3-------0--------------------------------------||
A|-00-----------000-1111--------------5----3333-4444--------------------||
E|---------------------------------3-3---2------------------------------||

Enjoy and the video is of me playing the intro only...i will play the whole song later.
Godsped

            
            
Suggest correction
Creating personal tab
Creating personal tab
You can edit any tab online and save it as your Personal.

You can edit, replace or remove any tab part or add personal notes – all changes will be seen only by you.

Personal tabs can be accessed anytime from any device, even offline.
Learn more »
Give kudos to tab author, rate the tab!
1 2 3 4 5
comments
print report bad tab
2 comments total.
0 reply
aaron_masta 40 Nov 07, 2009 06:42 PM

REALLY good! there's just one part that i like to play differently in the intro part 1
G|-----------12/11-|------------14/11-|----------12/11----------||
D|--------12-------|---------12-------|-------12----------------||
A|-0-10------------|-0----10----------|-0--10-------------------||
E|-----------------|------------------|-------------------------||

im sorry, but i don't find that impossible 17 necessary. :)

0 reply
xXSwitchfootFan 10 Jun 08, 2017 02:59 PM

I play the intro like this
G|----------12h11
D|--7/9--12----- x2
A|--------------
E|--------------

G|-------12-14-11-
D|--7/9-12--------
A|----------------
E|----------------
Besides the Intro everything else is pretty good.

guest
You may want to rate the tab now too:
select rating
Wanna post a correction for this tab? Suggest correction