Oops, an error
Loading. Please wait.

Mess Of Me bass

version 1
version 1

Whole song

Interactive

6,506 views 1 this week
no commentswrite comment
1 2 3 4 5
1 last vote to show rating
add to favorites
×
Save as Personal and add changes to this tab that will be seen only by you. Learn more ›
×
You can save this tab as Personal to edit and correct it or add notes. All changes will be seen only by you. Learn more »
launch autoscroll
font size
0
reset
guitar tuner
edit
Autoscroll
slow
fast
+/-
esc
set tempo
stop
Author
Difficulty
-----------------------------------------------------------------------------
			     Mess of Me-Switchfoot
-----------------------------------------------------------------------------

Tuning: Standard

Guitar intro

G|------------------|
D|------------------|
A|------------------|
E|-10/12------------| Right when guitar intro ends

Verse:
(Play right after, 'I am my own affliction') 
G|----------------------------|
D|--------------5h7-----------|
A|------------3---------------|
E|-0-0-0-0-0-------0----------| 4x

'Ooo, there ain't no drug'
G|-------------------------------|
D|------5------------------------|
A|--5-7--------------------------|
E|-------------------------------| If you have any suggestions for this
                                   let me know :) 

Chorus: 'I made a mess of me..' 
G|----------------------------------------------|
D|----------------------------------------------|
A|-----------------------------------5h7-5------|
E|--00000000-88888888-33333333-777777------0----|

G|-----------------------------------------------|
D|-----------------------------------------------|
A|-----------------------------------------------|
E|--00000000-88888888-33333333-77777777-8888-7777|

G|----------------------------|
D|--------------5h7-----------|
A|------------3---------------|
E|-0-0-0-0-0-------0----------| 2x instrumental. 3x with song

On the 5th time played there is a small bass part. Track time is 1:31
G|---------------|
D|---------------|
A|------7-5------|
E|--5h7-----0----| Go right into verse once more

Then...3x         After 3x
G|--------------| G|--------------|
D|------5-------| D|-5h7----------|
A|--5-7---------| A|-----5h7------|
E|--------------| E|---------77-0-|


Chorus: 'I made a mess of me..' 
G|----------------------------------------------|
D|----------------------------------------------|
A|-----------------------------------5h7-5------|
E|--00000000-88888888-33333333-777777------0----|

G|-----------------------------------------------|
D|-----------------------------------------------|
A|-----------------------------------------------|
E|--00000000-88888888-33333333-77777777-8888-7777|

G|-------------------|
D|-------------------|
A|-------------------|
E|-0000000000000----0-|
                    ^ listen for this one. "No drug to make me well"

Bridge. Come in on "It's not enough"
G|-----------12--14/16--14--14-12-11----12----|
D|--------14-------------------------14-------|
A|--------------------------------------------|
E|-10/12--------------------------------------|

"The sickness is myself"
E|--0------------------|

Chorus: 'I made a mess of me..' 
G|----------------------------------------------|
D|----------------------------------------------|
A|-----------------------------------5h7-5------|
E|--00000000-88888888-33333333-777777------0----|

G|-----------------------------------------------|
D|-----------------------------------------------|
A|-----------------------------------------------|
E|--00000000-88888888-33333333-77777777-8888-7777|

G|----------------|
D|----------------|
A|----------------|
E|-0-(23x)----12~ |


| /  slide up
| \  slide down
| h  hammer-on
| p  pull-off
| ~  vibrato
| +  harmonic
| x  Mute note
=============================================================================

            
            
Suggest correction
Creating personal tab
Creating personal tab
You can edit any tab online and save it as your Personal.

You can edit, replace or remove any tab part or add personal notes – all changes will be seen only by you.

Personal tabs can be accessed anytime from any device, even offline.
Learn more »
Give kudos to tab author, rate the tab!
1 2 3 4 5
comments
print report bad tab
guest
You may want to rate the tab now too:
select rating
Wanna post a correction for this tab? Suggest correction