Oops, an error
Loading. Please wait.

Oh Gravity bass

version 1
version 1

Whole song

Interactive

5,687 views 1 this week
4 commentsread comments
1 2 3 4 5
x 8
add to favorites
×
Save as Personal and add changes to this tab that will be seen only by you. Learn more ›
×
You can save this tab as Personal to edit and correct it or add notes. All changes will be seen only by you. Learn more »
launch autoscroll
font size
0
reset
guitar tuner
edit
Autoscroll
slow
fast
+/-
esc
set tempo
stop
Difficulty
intermediate
Song: Oh! Gravity
Album: Oh! Gravity (2006)
Artist: Switchfoot
Tuning: Standard (EADG)
/=slide

Intro (0:03)
“La La La La, La La La La”
g |------------------------------------------------------------------------------------|
d |----------------------------------------------------------------------------|   x 2-|
a |--5-/-12-12-12-12-12-12-12-12---------55555555--------------------------------------|
e |------------------------------------------------------------------------------------|

g |------------------------------------------------------------------------------|
d |------------------------------------------------------------------------------|
a |--10-10-10-10-10-10-10-10-------------55555555--------------------------------|
e |------------------------------------------------------------------------------|

g |------------------------------------------------------------------------------|
d |------------------------------------------------------------------------------|
a |--12-12-12-12-12-12-12-12-------------55555555--------------------------------|
e |------------------------------------------------------------------------------|

Verse (0:14)
“There’s a fracture...”
g |------------------------------------------------------------------------------|
d |---------------------------------12-/-0---------------------------------------|
a |--12-12------12-12------10-10-----------12-/-5------12-12--------55-55--------|
e |------------------------------------------------------------------------------|

g |------------------------------------------------------------------------------------|
d |----------------------------------------------------------------------------|   x 2-|
a |--12-12-12-12-12-12-12-12-/-55555555------------------------------------------------|
e |------------------------------------------------------------------------------------|

g |------------------------------------------------------------------------------|
d |------------------------------------------------------------------------------|
a |--10-10-10-10-10-10-10-10-/-55555555------------------------------------------|
e |------------------------------------------------------------------------------|

g |------------------------------------------------------------------------------|
d |------------------------------------------------------------------------------|
a |----12-12-12-12-12-12-12-12-/-16-16-16-16-/-8-8-8-8---------------------------|
e |------------------------------------------------------------------------------|

Chorus (0:39)
“Oh! Gravity, why can’t we..”
g |----------------------------------------------------------------------------------|
d |-------------------------------0-0-0-0-0-----------------------------------|  x 4-|
a |----12-12-12-12-12-12-12-12------------------7-9-/-12-----------------------------|
e |----------------------------------------------------------------------------------|

Bridge (0:52)
g |------------------------------------------------------------------------------------|
d |----------------------------------------------------------------------------|   x 2-|
a |--12-12-12-12-12-12-12-12-/-55555555------------------------------------------------|
e |------------------------------------------------------------------------------------|

g |------------------------------------------------------------------------------------|
d |----------------------------------------------------------------------------|   x 2-|
a |--12-12-12-12-12-12-12-12-/-0-------------(keyboard solo)---------------------------|
e |------------------------------------------------------------------------------------|

Verse2 (0:57)
“In the back room of the Pentagon”
g |------------------------------------------------------------------------------|
d |------------------------------------------------------------------------------|
a |--12-12---12-----55-5-----12-12---12----55-5-----10-10---10-----55-5----------|
e |------------------------------------------------------------------------------|

g |------------------------------------------------------------------------------|
d |------------------------------------------------------------------------------|
a |----12-12-12-12-12-12-12-12-/-16-16-16-16-/-8-8-8-8---------------------------|
e |------------------------------------------------------------------------------|

Chorus: (1:09)
“Oh! Gravity, why can’t we..”
g |-----------------------------------------------------------------------------------|
d |---------------------------------0-0-0-0-0----------------------------------|  x 4-|
a |----12-12-12-12-12-12-12-12------------------7-9-/-12------------------------------|
e |-----------------------------------------------------------------------------------|

“Why this tragedy..”
g |------------------------------------------------------------------------------|
d |----------------------------------0-0-0-0-0-----------------------------------|
a |-----------9-9-9-9-9-9-9-9-----------------------7-9-/-12---------------------|
e |------------------------------------------------------------------------------|

g |-------------------------------------------------------------------------------|
d |--------------------------------0-0-0-0-0--------------------------------------|
a |----12-12-12-12-12-12-12-12------------------7-9-/-12--------------------------|
e |-------------------------------------------------------------------------------|

g |------------------------------------------------------------------------------|
d |---------------------------0-0-0-0-0------------------------------------------|
a |--12-12-12-12-12-12-12-12-----------7-9-9-9-9-9-9-9-9-/-5-5-5-5-5-5-5-5-------|
e |------------------------------------------------------------------------------|

Bridge (1:34)
“In the fallout..”
g |-------------------------------------------------------------------------------|
d |---------------------------7-4----------------------------------7-4------------|
a |--12-12---55---12-12---55-------7-5-2-----00---55---12-12--55-----7-5-2--------|
e |-------------------------------------------------------------------------------|

g |------------------------------------------------------------------------------------|
d |----------------------------------------------------------------------------|   x 2-|
a |--12-12-12-12-12-12-12-12-------------55555555--------------------------------------|
e |------------------------------------------------------------------------------------|

Chorus (1:52)
“Oh gravity, why can’t we.”
g |-------------------------------------------------------------------------------------|
d |-----------------------------------------------------(vocal solo)--------------------|
a |--12---(  L  E  T----R  I  N  G   )--------------------------------------------------|
e |-------------------------------------------------------------------------------------|

(2:04) “Why this tragedy..”
g |----------------------------------------------------------------------------------|
d |---------------------------------0-0-0-0-0---------------------------------|  x 2-|
a |----12-12-12-12-12-12-12-12------------------7-9-/-12-----------------------------|
e |----------------------------------------------------------------------------------|

g |------------------------------------------------------------------------------|
d |---------------------------0-0-0-0-0------------------------------------------|
a |--12-12-12-12-12-12-12-12-----------7-9-9-9-9-9-9-9-9-/-5-5-5-5-5-5-5-5-------|
e |------------------------------------------------------------------------------|


Outro (2:17)
“La La La La, La La La La”
g |-------------------------------------------------------------------------------|
d |---------------------------------0-0-0-0-0-------------------------------------|
a |----12-12-12-12-12-12-12-12------------------7-9-/-12--------------------------|
e |-------------------------------------------------------------------------------|

g |-------------------------------------------------------------------------------|
d |-------------------------------------------------------------------------------|
a |--12-12-12-12-12-12-12-12-/-55555555-------------------------------------------|
e |-------------------------------------------------------------------------------|

g |-------------------------------------------------------------------------------|
d |-------------------------------0-0-0-0-0---------------------------------------|
a |----12-12-12-12-12-12-12-12------------------7-9-/-12--------------------------|
e |-------------------------------------------------------------------------------|

g |-------------------------------------------------------------------------------------|
d |-----------------------------( “put it together..” )---------------------------------|
a |--12-12-12-12-12-12-12-12-----5-(mute)-----------------------------------------------|
e |-------------------------------------------------------------------------------------|

The End

            
            
Suggest correction
Creating personal tab
Creating personal tab
You can edit any tab online and save it as your Personal.

You can edit, replace or remove any tab part or add personal notes – all changes will be seen only by you.

Personal tabs can be accessed anytime from any device, even offline.
Learn more »
comments
print report bad tab
4 comments total. Showing first comments.
0 reply
BassFaceBass 10 Jun 08, 2007 11:36 AM

yay tank you unregistered

0 reply
Damaskus 94 Sep 04, 2007 10:02 PM

Its a good tab dont get me wrong, this is basically how i played it when i first tabbed it myself, a good try on the chorus and bridge tho man those are tough as hell to figure out, im still trying to get it all down correctly, nice tab tho.

0 reply
BassPlayer4God 10 Mar 17, 2009 07:22 AM

Thats really good!! Nice job!!!

guest
Wanna post a correction for this tab? Suggest correction