Oops, an error
Loading. Please wait.

Oh Gravity tab

version 1
version 1

Whole song

Interactive

9,585 views 1 this week
4 commentsread comments
1 2 3 4 5
x 5
add to favorites
×
Save as Personal and add changes to this tab that will be seen only by you. Learn more ›
×
You can save this tab as Personal to edit and correct it or add notes. All changes will be seen only by you. Learn more »
launch autoscroll
font size
0
reset
how to read this tab
guitar tuner
edit
Autoscroll
slow
fast
+/-
esc
set tempo
stop
                                         
                             "Oh! Gravity"
                             by Switchfoot
                           tabbed by Nate H.


Alright, theres no way I could line up the two guitar parts with each other, but I tried
to space them out at least relatively accurately. Alot of the time when one guitar pauses
the other plays its riff, and the go back and forth (Verse, and Bridge for example.)



Guitars 1 & 2- Electric w/ distortion


INTRO

Guitar 1
e|-----------------------------------------------------|
B|-----------------------------------------------------|
G|-----------------------------------------------------|
D|-7-7----7--0-0----0--7-7----0--5-5----5--0-0---------|
A|-7-7----7--0-0----0--7-7----0--5-5----5--0-0---------|
D|-7-7----7--0-0----0--7-7----0--5-5----5--0-0---------| 

(continued)
e|-----------------------------------------------------|
B|-----------------------------------------------------|
G|-----------------------------------------------------|
D|-0--7-7----7--0-0----0----7-7------------------------|
A|-0--7-7----7--0-0----0----7-7------------------------|
D|-0--7-7----7--0-0----0----7-7------------------------| 


Guitar 2
e|-----------------------------------------------------|
B|-----------------------------------------------------|
G|------9-9-----------------------------9-9------------|
D|-1111-7-7-1111---1111-9-9-1111---1111-7-7-1111-------|
A|-7-7--7-7-7-7----7-7--7-7-7-7----7-7--7-7-7-7--------|
D|-7-7--7-7-7-7----7-7--7-7-7-7----7-7--7-7-7-7--------| 

(continued)
e|------------------------------------------|
B|------------------------------------------|
G|---------------------7-7------------------|
D|-1111-9-9-1111---9-9-5-5-9-9--9-9-7-7-9---|
A|-7-7--7-7-7-7----5-5-5-5-5-5--5-5-5-5-5---|
D|-7-7--7-7-7-7----5-5-5-5-5-5--5-5-5-5-5---| 


  (continued)
e|----------------------------------------------------|
B|----------------------------------------------------|
G|----------------------------------------------------|
D|----1111-9-9-1111--1111-9-9-7-7---------------------|
A|----7-7--7-7-7-7---7-7--7-7-7-7---------------------|
D|----7-7--7-7-7-7---7-7--7-7-7-7---------------------| 


Verse 1

Guitar 1

e|-------------------------------------------------|
B|-------------------------------------------------|
G|-------------------------------------------------|
D|--7-7--------7-7--------5-5--------7-7------0-0--|
A|--7-7--------7-7--------5-5--------7-7------0-0--|
D|--7-7--------7-7--------5-5--------7-7------0-0--| 

(continued)
e|---------------------------------------|
B|---------------------------------------|
G|---------------------------------------|
D|----0/7-7-------0/7-7---------7-5-5----|
A|----0/7-7-------0/7-7---------7-5-5----|
D|----0/7-7-------0/7-7---------7-5-5----| 

(continued)
e|-----------------------------------------------------|
B|-----------------------------------------------------|
G|-----------------------------------------------------|
D|-5-7-7---7-11-11-11-11-3-3-3-7-7---------------------|
A|-5-7-7---7-11-11-11-11-3-3-3-7-7---------------------|
D|-5-7-7---7-11-11-11-11-3-3-3-7-7---------------------| 

Guitar 2 (1st half of verse)
e|--------------------------------------------|
B|--------------------------------------------|
G|--------------------------------------------|
D|----11-11-9-9-11-11----11-11-9-9--11-11-----|
A|-----------------------12-12-1212-12-12-----|
D|--------------------------------------------| 

Guitar 2 (2nd half of verse)
e|---------------------------------------------------------------------|
B|---------------------------------------------------------------------|
G|---------------------------------------------------------------------|
D|----11-11-9-9-11-11--------11-11-11-11-11-11---------9-9-7-7-9-9-----|
A|---------------------------12-12-12-12-12-12-------------------------|
D|---------------------------------------------------------------------| 



Chorus

Guitars 1 & 2

e|-----------------------------------------------------|
B|-----------------------------------------------------|
G|------------------7-7-7-7-7-7-7-7--------------------|
D|-7-7-7-7-7-7-7-7--7-7-7-7-7-7-7-7--------------------|
A|-7-7-7-7-7-7-7-7--5-5-5-5-5-5-5-5--------------------|
D|-7-7-7-7-7-7-7-7--0-0-0-0-0-0-0-0--------------------| 

INTERLUDE

Guitar 1
e|-----------------------------------------------------|
B|-----------------------------------------------------|
G|-----------------------------------------------------|
D|-7-7---111111---7-5-5----111111---5-7-7--------------|
A|-7-7---x-x-x----7-5-5----x-x-x----5-7-7--------------|
D|-7-7---9-9-9----7-5-5----9-9-9----5-7-7--------------| 


Guitar 2
e|---------------------------------------------------------|
B|---------------------------------------------------------|
G|-------7-7-----------------------------------------------|
D|---9-9-5-5-9-9--9-9-7-7-9-9-----1111-9-9-1111------------|
A|---5-5-5-5-5-5--5-5-5-5-5-5-----7-7--7-7-7-7-------------|
D|---5-5-5-5-5-5--5-5-5-5-5-5-----7-7--7-7-7-7-------------| 


Crazy Piano then....

Verse 2

Both guitars play the riff that guitar 1 played in the first verse.

Chorus 2

Same as first one until Jon Foreman yells "WHOA! this tragedy, why cant we..." 
which goes.

Guitars 1 & 2
e|---------------------------------------------------------------------|
B|---------------------------------------------------------------------|
G|------------------7-7-7-7-7-7-7-7-------------------7-7-7-7-7-7-7-7--|
D|-4-4-4-4-4-4-4-4--7-7-7-7-7-7-7-7--7-7-7-7-7-7-7-7--7-7-7-7-7-7-7-7--|
A|-4-4-4-4-4-4-4-4--5-5-5-5-5-5-5-5--7-7-7-7-7-7-7-7--5-5-5-5-5-5-5-5--|
D|-4-4-4-4-4-4-4-4--0-0-0-0-0-0-0-0--7-7-7-7-7-7-7-7--0-0-0-0-0-0-0-0--|
 
(continued)
e|----------------------------------------------------------------------|
B|----------------------------------------------------------------------|
G|------------------7-7-7-7-7-7-7-7-------------------7-7-7-7-7-7-7-7---|
D|-7-7-7-7-7-7-7-7--7-7-7-7-7-7-7-7--4-4-4-4-4-4-4-4--7-7-7-7-7-7-7-7---|
A|-7-7-7-7-7-7-7-7--5-5-5-5-5-5-5-5--4-4-4-4-4-4-4-4--5-5-5-5-5-5-5-5---|
D|-7-7-7-7-7-7-7-7--0-0-0-0-0-0-0-0--4-4-4-4-4-4-4-4--0-0-0-0-0-0-0-0---| 

(continued again)
e|-----------------------------------------------------|
B|-----------------------------------------------------|
G|-----------------------------------------------------|
D|-4-4-4-4-4-4-4-4--0-0-0-0-0-0-0-0--------------------|
A|-4-4-4-4-4-4-4-4--0-0-0-0-0-0-0-0--------------------|
D|-4-4-4-4-4-4-4-4--0-0-0-0-0-0-0-0--------------------| 


If you want, on the last D5 chord you can add another D on the 3rd string 7th fret. I like
the sound of that better but it doesnt make much of difference because I cant tell whether they
are or not.


Bridge

Guitar 1

e|-----------------------|
B|-----------------------|
G|-----------------------|
D|-7-7-7----0-0-0--------|
A|-7-7-7----0-0-0--------|
D|-7-7-7----0-0-0--------|4x

Guitar 2
e|---------------------------------------------------------|
B|---------------------------------------------------------|
G|------13/14-------13/14-------13/14-----16-16-16\14-14---|
D|------x--x--------x--x--------x--x------x--x--x--x--x----|
A|------11/12-------11/12-------11/12-----14-14-14\12-12---|
D|---------------------------------------------------------|

(continued)
e|-----------------------------------------------------------|
B|-----------------------------------------------------------|
G|-----13/14--------13/14-------13/14--14-14-14-14-13\11-9---|
D|-----x--x---------x--x--------x--x---x--x--x--x--x--x--x---|
A|-----11/12--------11/12-------11/12--12-12-12-12-11\9--7---|
D|-----------------------------------------------------------|


Bridge part two (where Jon stops singing)

Guitar 1

e|-------------------------------------|
B|-------------------------------------|
G|------------------7-7-7-7-7-7-7-7----|
D|-7-7-7-7-7-7-7-7--7-7-7-7-7-7-7-7----|
A|-7-7-7-7-7-7-7-7--5-5-5-5-5-5-5-5----|
D|-7-7-7-7-7-7-7-7--0-0-0-0-0-0-0-0----| x2

Guitar 2 holds A octave the whole time
e|-----------------------------|
B|-----------------------------|
G|---14-14-14-14-14-14-14-14---|
D|---x-x-x-x-x-x-x-x-x-x-x-x---|
A|---12-12-12-12-12-12-12-12---|
D|-----------------------------|

Chorus 3

The music stops for the first part. Then guitar 2 slowly fades in with the A octave 
again with some tremolo type effects on then when he sings "WOAH this tragedy..."
the guitars come back in.

Guitars 1 & 2
e|-----------------------------------------------------------------------|
B|-----------------------------------------------------------------------|
G|------------------7-7-7-7-7-7-7-7-------------------7-7-7-7-7-7-7-7----|
D|-4-4-4-4-4-4-4-4--7-7-7-7-7-7-7-7--7-7-7-7-7-7-7-7--7-7-7-7-7-7-7-7----|
A|-4-4-4-4-4-4-4-4--5-5-5-5-5-5-5-5--7-7-7-7-7-7-7-7--5-5-5-5-5-5-5-5----|
D|-4-4-4-4-4-4-4-4--0-0-0-0-0-0-0-0--7-7-7-7-7-7-7-7--0-0-0-0-0-0-0-0----| 

(continued)
e|---------------------------------------------------------------------|
B|---------------------------------------------------------------------|
G|------------------7-7-7-7-7-7-7-7-------------------7-7-7-7-7-7-7-7--|
D|-7-7-7-7-7-7-7-7--7-7-7-7-7-7-7-7--4-4-4-4-4-4-4-4--7-7-7-7-7-7-7-7--|
A|-7-7-7-7-7-7-7-7--5-5-5-5-5-5-5-5--4-4-4-4-4-4-4-4--5-5-5-5-5-5-5-5--|
D|-7-7-7-7-7-7-7-7--0-0-0-0-0-0-0-0--4-4-4-4-4-4-4-4--0-0-0-0-0-0-0-0--| 

OUTRO

Guitars 1 & 2
e|----------------------------------------------|
B|----------------------------------------------|
G|------------------7-7-7-7-7-7-7-7-------------|
D|-7-7-7-7-7-7-7-7--7-7-7-7-7-7-7-7-------------|
A|-7-7-7-7-7-7-7-7--5-5-5-5-5-5-5-5-------------|
D|-7-7-7-7-7-7-7-7--0-0-0-0-0-0-0-0-------------|x4 (ends on A5 chord)


This is a great song, and very easy to play, please comment!
 




 





















            
            
Suggest correction
Creating personal tab
Creating personal tab
You can edit any tab online and save it as your Personal.

You can edit, replace or remove any tab part or add personal notes – all changes will be seen only by you.

Personal tabs can be accessed anytime from any device, even offline.
Learn more »
comments
print report bad tab
4 comments total. Showing first comments.
0 reply
fireproofcat 10 Nov 30, 2006 12:09 PM

awesome!

0 reply
Melvin McMargle 388 Dec 20, 2006 12:39 AM

This is a pretty accurate tab, well done!

0 reply
awsomeguitarguy 152 Apr 14, 2007 07:30 PM

What the? this completely wrong! It doesn't sound right at all, WTH?!!!!!

guest
You may want to rate the tab now too:
select rating
Wanna post a correction for this tab? Suggest correction