Oops, an error
Loading. Please wait.

On Fire tab

version 1
version 1

Whole song

Interactive

15,031 views 6 this week
6 commentsread comments
1 2 3 4 5
x 7
add to favorites
×
Save as Personal and add changes to this tab that will be seen only by you. Learn more ›
×
You can save this tab as Personal to edit and correct it or add notes. All changes will be seen only by you. Learn more »
launch autoscroll
font size
0
reset
how to read this tab
guitar tuner
edit
Autoscroll
slow
fast
+/-
esc
set tempo
stop
Author
-------------------------------------------------------------------------------
                SONG NAME: On Fire - Band Name: Switchfoot
-------------------------------------------------------------------------------
Tabbed by: johnc27
Email: j0hnc86@yahoo.com


Well, here is the TAB for another great switchfoot song, on fire.
The chords used are Caad2, G, Am, F, in that order. You can look at another version to see 
where to put them in.

This is the piano part transcribed for guitar:

e|-8-7----------8-7-------8-7--------3-5--------------|
B|----------------------------------------------------|
G|----------------------------------------------------|
D|--------10-12-------5-7-------9-10---------3-5------|
A|-----10-----------5---------7------------3----------|
E|---8------------3---------5------------1------------|


  This is the guitar part after the second chorus. Since you can't distinguish it well 
the CD, this is the live version (which sounds very
close to the one on the CD.) Mild distortion will do.

e|---------------0-3/5-3-1-0-------------------------------------------------|
B|-----------0-1-------------------------------------------------------------|
G|---------2-----------------------------------------------------------------|
D|-------2-------------------------------------------------------------------|
A|-0-2-3---------------------------------------------------------------------|
E|---------------------------------------------------------------------------|

        Thats about it! Leave a comment, rate it, and have fun

| /  slide up
| \  slide down
| h  hammer-on
| p  pull-off
| ~  vibrato

            
            
Suggest correction
Creating personal tab
Creating personal tab
You can edit any tab online and save it as your Personal.

You can edit, replace or remove any tab part or add personal notes – all changes will be seen only by you.

Personal tabs can be accessed anytime from any device, even offline.
Learn more »
comments
print report bad tab
6 comments total. Showing first comments.
0 reply
bc2skaterpunk 120 Mar 11, 2005 07:00 PM

try this for the piano part at the beginning.
e|8--7--------8--7-----5--
B|------5--8--------5-----
G|------------------------
D|------------------------
A|------------------------
E|------------------------

0 reply
johnc27 71 Mar 12, 2005 07:00 PM

oh sorry i forgot to do that, although I knew it

0 reply
johnc27 71 Mar 12, 2005 07:00 PM

is it possible to edit it?

guest
You may want to rate the tab now too:
select rating
Wanna post a correction for this tab? Suggest correction