Oops, an error
Loading. Please wait.

Only Hope tab

version 7
5,759 views 1 this week
1 commentread comment
1 2 3 4 5
1 last vote to show rating
add to favorites
×
Save as Personal and add changes to this tab that will be seen only by you. Learn more ›
×
You can save this tab as Personal to edit and correct it or add notes. All changes will be seen only by you. Learn more »
launch autoscroll
font size
0
reset
how to read this tab
guitar tuner
edit
Autoscroll
slow
fast
+/-
esc
set tempo
stop
Author
Difficulty
Intro: acoustic 1
/e----------------------------------------------------------------------->\
|B--------0------------3---3---3------------0------------3---3---3------->|
|G----7\--------------0-0-0-0-0-0--4----7\--------------0-0-0-0-0-0--4--->|
|D---5---0-----7\--4\-------------4----5---0-----7\--4\-------------4---->|
|A-/7---------5---2--3-------3---2---/7---------5---2--3-------3---2----->|
|E------3---/7---0-------3----------------3---/7---0-------3------------->|
|                                                                         |
|Intro: acoustic 2                                                        |
|e----------------------------------------------------------------------->|
|B----------------------------------------------------------------------->|
|G---------------77754-4---------------------------77754-4--------------->|
|D----------------------75--45-4--------------------------75--45-4------->|
|A------------------------/7----76-7~-----------------------/7----76-7~-->|
\E----------------------------------------------------------------------->/

verse 1: gtr. 1
e----------------------------------------------------------------------->
B--------0------------3---3---3------------0------------3---3---3------->
G----7\--------------0-0-0-0-0-0--4----7\--------------0-0-0-0-0-0--4--->
D---5---0-----7\--4\-------------4----5---0-----7\--4\-------------4---->
A-/7---------5---2--3-------3---2---/7---------5---2--3-------3---2----->
E------3---/7---0-------3----------------3---/7---0-------3------------->
There's a song that's inside of my soul It's the one that I've tried to
write over and over again

e----------------------------------------------------------------------->
B--------0------------3---3---3------------0------------3---3---3------->
G----7\--------------0-0-0-0-0-0--4----7\--------------0-0-0-0-0-0--4--->
D---5---0-----7\--4\-------------4----5---0-----7\--4\-------------4---->
A-/7---------5---2--3-------3---2---/7---------5---2--3-------3---2----->
E------3---/7---0-------3----------------3---/7---0-------3------------->
I'm awake in the infinite cold But You sing to me over and over and over
again 

Chorus: gtr. 1
/e-0-0000-0000-0000-0000-0000-0000-0000-000->\
|B-0-0000-0000-0000-0000-0000-0000-0000-000->|
|G-9-9999-9998-8888-8886-6666-6666-6666-666->|
|D-9-9999-9999-9999-9997-7777-7777-7777-777->|
|A-7-7777-7776-6666-6667-7777-7777-7777-777->|
|E-0-0000-0000-0000-0005-5555-5555-5555-555->|
|                                            |
|chorus: gtr. 2                              |
|e---------------------7----------7----4---->|
|B------------------------5--4--5----5----7->|
|G------------------------------------------>|
|D------------------------------------------>|
|A------------------------------------------>|
\E------------------------------------------>/
So I lay my head back down... And I



e-0-0000-0000-0000-0000-0000-0000-0000-0000-0000-0000-0000-0000-0000-0000~->
B-0-0000-0000-0000-0000-0000-0000-0000-0000-0000-0000-0000-0000-0000-0000~->
G-9-9999-9998-8888-8886-6666-6666-6666-6666-6666-6666-6666-6665-5555-5555~->
D-9-9999-9999-9999-9997-7777-7776-6666-6667-7777-7776-6666-6665-5555-5555~->
A-7-7777-7779-9999-9997-7777-7774-4444-4447-7777-7774-4444-4443-3333-3333~->
E-0-0000-0007-7777-7775-5555-555----------5-5555-555----------------------->
lift my hands And pray to be only Yours I pray to be only Yours I know now
You're my only hope 

---REPEAT 1/2 INTRO (no guitar 2)

verse 2: gtr. 1
e----------------------------------------------------------------------->
B--------0------------3---3---3------------0------------3---3---3------->
G----7\--------------0-0-0-0-0-0--4----7\--------------0-0-0-0-0-0--4--->
D---5---0-----7\--4\-------------4----5---0-----7\--4\-------------4---->
A-/7---------5---2--3-------3---2---/7---------5---2--3-------3---2----->
E------3---/7---0-------3----------------3---/7---0-------3------------->
Sing to me of the song of the stars Of Your galaxy dancing and laughing and
laughing again

e----------------------------------------------------------------------->
B--------0------------3---3---3------------0------------3---3---3------->
G----7\--------------0-0-0-0-0-0--4----7\--------------0-0-0-0-0-0--4--->
D---5---0-----7\--4\-------------4----5---0-----7\--4\-------------4---->
A-/7---------5---2--3-------3---2---/7---------5---2--3-------3---2----->
E------3---/7---0-------3----------------3---/7---0-------3------------->
When it feels like my dreams are so far Sing to me of the plans that You
have for me over again 

---REPEAT CHORUS 

Fill: other instruments
e------------------------------------------------->
B---0-0---0-0---------0-0---0-0---0-0---0-0------->
G---0-0---0-0---------0-0---0-0---0-0---0-0------->
D-2-----0-------4-4-2-------------------------4-4-> repeat this
A-------------2-5-5-------3-----------3-----2-5-5->
E-------------------------------3----------------->

Bridge:
  D     Em                           F#7    B
e-------0~----------0~----------0~----2~----2~----0~----2~----0~----2~----->
B-3~----0~----3~----0~----3~----0~----2~----4~----2~----4~----2~----4~----->
G-2~----0~----2~----0~----2~----0~----3~----4~----2~----4~----2~----4~----->
D-0~----2~----0~----2~----0~----2~----2~----4~----2~----4~----2~----4~----->
A-------2~----------2~----------2~----4~----2~----0~----2~----0~----2~----->
E-------0~----------0~----------0~----2~----------------------------------->
I give You my apathy I'm giving You all of me I want Your symphony Singing
in all that I am At the top of my lungs I'm giving it back 

---REPEAT CHORUS (repeat the “I pray to be only Yours” part again)

---REPEAT INTRO (end on an Em)
Suggest correction
Creating personal tab
Creating personal tab
You can edit any tab online and save it as your Personal.

You can edit, replace or remove any tab part or add personal notes – all changes will be seen only by you.

Personal tabs can be accessed anytime from any device, even offline.
Learn more »
Give kudos to tab author, rate the tab!
1 2 3 4 5
comments
print report bad tab
1 comment total.
0 reply
awsomeguitarguy 152 Aug 10, 2007 04:47 AM

there is only 1 guitar in this song, sorry 2 stars

guest
You may want to rate the tab now too:
select rating
Wanna post a correction for this tab? Suggest correction